Guitar Tabs, Chords and Lyrics
Update 25:10. 13:00. Site is back up running again. Songbooks are recovered. Woring on getting search back up..


Auf Wiederseh'n  Feuerschwanz

[G] [D] [Em] [C] 
 
 ----------------------------------------------------------------------------------------------------
 -------3---3---------------3---3--------------0---0----------------1---1----------------------------
 ---------0---0---------------2---2---------------0---0----------------0----0------------------------
 ----2------------------0--------------------2-------------------2-----------------------------------
 -3------------------0--------------------2-------------------3--------------------------------------
 ----------------------------------------------------------------------------------------------------

Brenn kleine Kerze, damit ich Dich seh, damit ich Dich finde, zwischen Steinen und Schnee.
Hab ich mich verirrt, der Weg ist so schmal, oder bist Du erloschen, frag ich mich jedesmal.
Brenn kleines Lichtlein, in dunkelster Nacht. Vertreibst Dir die Kälte und hälst eisern Wacht.
Dein Schimmer entschwindet ins Dunkel hinein, Du brennst hell im Herzen, doch hier drau?en so klein.
Brenn mein Herzlein, in Feuer und Glut. Verbrenn meinen Kummer, verbrenn meine Wut.
Wirf ein Licht auf die Stunden, so sorglos und klar.
Auf die Zeiten als ich noch ein anderer war.
[Em]Auf Wiederseh'n, [G]auf Wiederseh'n.
[D]In einem andern Leben... [A]werden wir uns wiedersehn.
[G] [D] [Em] [C] 
 
 ----------------------------------------------------------------------------------------------------
 -------3---3---------------3---3--------------0---0----------------1---1----------------------------
 ---------0---0---------------2---2---------------0---0----------------0----0------------------------
 ----2------------------0--------------------2-------------------2-----------------------------------
 -3------------------0--------------------2-------------------3--------------------------------------
 ----------------------------------------------------------------------------------------------------

Du erinnerst mich warum ich jetzt Warum ich meine Im dunkeln verbring.
daran, hier bin. Tage nicht
Treibts mich auch umher, mal voll und mal schwer.
Du, kleine Kerze hast Dich nie verzehrt.
Leb wohl mein Lichtlein, vorbei ist die Zeit.
In Dunkelheit vor mir, der Weg ist so weit.
Ich sag's Dir im stillen, so wie es ist.
Kein Tag wird vergehen an dem ich Dich nicht vermiss.
[Em]Auf Wiederseh'n, [G]auf Wiederseh'n.
[D]In einem andern Leben... [A]werden wir uns wiedersehn.
[Em]Auf Wiederseh'n, [G]auf Wiederseh'n.
[D]In einem andern Leben... [B]werden wir uns wiedersehn.
[G] [D] [Em] [C] 
 
 ----------------------------------------------------------------------------------------------------
 -------3---3---------------3---3--------------0---0----------------1---1----------------------------
 ---------0---0---------------2---2---------------0---0----------------0----0------------------------
 ----2------------------0--------------------2-------------------2-----------------------------------
 -3------------------0--------------------2-------------------3--------------------------------------
 ----------------------------------------------------------------------------------------------------

Denn jeder Tag ist den man nicht Und ich glaub wenn Du mich lachen siehst.
verloren, genie?t. Du wärst froh,
Darum brenn kleine Kerze, in dunkelster Nacht.
Und wir halten gemeinsam am Grabstein wacht.

Important: The song above is NOT stored on the Chordie server. The original song is hosted at www.azchords.com. Chordie works as a search engine and provides on-the-fly formatting. Chordie does not index songs against artists'/composers' will. To remove this song please click here.

Text color:
Chord color:
Chord grids: 
Font size:    
Page size: 

A B C D Em G
Rate #1 of 1 versions

Login - add to songbook

SHARE PAGE  




You need to log in to post comments