Guitar Tabs, Chords and Lyrics
Update 25:10. 13:00. Site is back up running again. Songbooks are recovered. Woring on getting search back up..


Gimmie Something  FIDLAR

Intro: G
[C]He?s been wasting his time,
Running out of all kinds of luck.[G]
[C]He?s been going down the line,
Living in the back of his truck.[G]
[D]With his all American steel reserve
C Bb (muted)
He puts it in the bag and he sits on a curb
And he says
[G]Hey, com[Gm]e on, give me money,[G]
[G]Hey, com[Gm]e on, give me money.[G]
[C]You?ve been living your life doing all kinds of [G]drugs
[C]Well I?ve been spending my time trying not to fall in lo[G]ve
[D]When you come out now with your dirty spoon
[C]Stay on my couch and you howl at[Bb] the moon and you say
[G]Hey, com[Gm]e on, give me something[G]
[G]Hey, com[Gm]e on, give me something.[G]
Solo 1 chords: C ? G ? C ? G ? D ? C
[G]Hey, com[Gm]e on, gi[G]ve me something
[G]Hey, com[Gm]e on, gi[G]ve me something
Solo 2 chords: C ? G ? C ? G ? D ? C
Outro: G ? Gm ? G (End on G)
Guitar 2:
-INTRO
[G]  
 
 E|--------3------------| x4
 B|----3-------5---3----|
 G|--0---0---0---0------|
 D|---------------------|
 A|---------------------|
 E|---------------------|

-VERSE 1
[C] [G]  
 
 E|-----8-8-8-8-8-8-8-8---8888/10101010--------3---------------3---------|x2
 B|-----8-8-8-8-8-8-8-8---8888/10101010----3-------5---3---3-------5---3-|
 G|-----9-9-9-9-9-9-9-9---9999/11111111--0---0---0---0---0---0---0---0---|
 D|-----1010101010101010-------------------------------------------------|
 A|-----1010101010101010-------------------------------------------------|
 E|-----x-x-x-x-x-x-x-x--------------------------------------------------|

and then: D - C - Bb
-CHORUS
G ? Gm ? G x2
-VERSE
-CHORUS
-SOLO 1
 
 E|-----------3----3h5-3--------3---------------|
 B|---5-5??3/5----5----------3-------5---3-------|
 G|-----------------------0---0---0---0---------|
 D|---------------------------------------------|
 A|---------------------------------------------|
 E|---------------------------------------------|
 E|-----------3-----/7-5-3--------10------------|
 B|---5-5-3/5----5----------10b12----12-10-8----|
 G|---------------------------------------------|
 D|---------------------------------------------|
 A|---------------------------------------------|
 E|---------------------------------------------|
 E|----------10----10--------10------8------6---|
 B|-------------12----------------------10--5---|
 G|---11h12------------10h11----8h9-------------|
 D|---------------------------------------------|
 A|---------------------------------------------|
 E|---------------------------------------------|

-CHORUS
-SOLO 2
 
 E|----3-3-5-5-7-7--10-10--------3--------------|
 B|--/5-5-5-5-8-8-12-12------3-------5---3------| x2
 G|------------------------0---0---0---0--------|
 D|---------------------------------------------|
 A|---------------------------------------------|
 E|---------------------------------------------|

and then
 
 E|----------10----10--------10------8------6---|
 B|-------------12----------------------10--5---|
 G|---11h12------------10h11----8h9-------------|
 D|---------------------------------------------|
 A|---------------------------------------------|
 E|---------------------------------------------|

-OUTRO CHORUS
[G] [Gm] [G] [G] [Gm] [G]  
 
 E|---------------------------------------------|
 B|---------------------------------------------|
 G|-----4-4-3333h44------4-4-3333h44------------|
 D|---------------------------------------------|
 A|---------------------------------------------|
 E|---------------------------------------------|


Important: The song above is NOT stored on the Chordie server. The original song is hosted at www.azchords.com. Chordie works as a search engine and provides on-the-fly formatting. Chordie does not index songs against artists'/composers' will. To remove this song please click here.

Text color:
Chord color:
Chord grids: 
Font size:    
Page size: 

Bb C D G Gm
Rate #1 of 1 versions

Login - add to songbook

SHARE PAGE  




You need to log in to post comments