Guitar Tabs, Chords and Lyrics
Update 25:10. 13:00. Site is back up running again. Songbooks are recovered. Woring on getting search back up..


Stoked and Broke  FIDLAR

Tuning: EADGBe
[E]I don?t [G]care if you[A] think it?s[C] cool
[E]f**ked u[G]p and I?m d[A]itching sch[C]ool
[E]I don?t [G]wanna go ba[A]ck to town[C]
[B]With my face to the ground and I?m up[D]side down
[E]I just w[G]anna get[A] really [C]high
[E]Smoke we[G]ed unt[A]il I d[C]ie
[E]I don?t [G]ever wan[A]na get a j[C]ob
[B]Cause I?m f**ked up today and there?s noth[D]ing wrong
Solo 1:
|E G A C |x3
|B D|
[E]Get p**s[G]ed up by[A] the hil[C]ls \
E G A C \
Cocaine and sh*tty pills Only single upstrokes
[E]Getting [G]head i[A]n a broken [C]car /[/]
[B]With the windows down and the ligh[D]ts turned off
[E]There?s [G]nothing wrong with [A]living like thi[C]s
[E]All my f[G]riends are [A]pieces of s[C]h*t
[E]Busted t[G]eeth and a [A]bloody nose[C]
[B]And I?m covered in dirt from my h[D]ead to my toes
Solo 2:
|E G A C |x3
|B D|
|E G A C |x3
|B D|
End on E~
Guitar 2:
-VERSE 1 & 2 = same as guitar 1
-SOLO 1
 
 E|---------------------------------------------|
 B|---------------------------------------------|
 G|--14b15-14-12---14b15-14-12-14-12------------|
 D|-----------------------------------14-12-14--|
 A|---------------------------------------------|
 E|---------------------------------------------|
 E|---------------------------------------------------------|
 B|-----------------------------12----12----12--------------|
 G|-----------------------------14b16-14b16-14b16-^16r14-12-|
 D|--14-12-14-12--------------------------------------------|
 A|--------------14-13-12-----------------------------------|
 E|-----------------------15-12-----------------------------|
 E|---------------------------------------------|
 B|--1212121212121212---1515151515151515--------|
 G|--1111111111111111---1414141414141414--------|
 D|--9-9-9-9-9-9-9-9----1212121212121212--------|
 A|---------------------------------------------|
 E|---------------------------------------------|

-VERSE 3
?get p**sed up?? ?cocaine and sh*tty?? ?get head in a??
 
 E|----------------------------------------------------------------|
 B|----------------------------------------------------------------|
 G|-------------------------------------7--------------------------|
 D|--2--5--7??7b8r7-5------2--5--7??7b8r7-------2--5--7---7b8r7-5----|
 A|--2--5--7--------7(m)--2--5--7--------7(m)-2--5--7--------------|
 E|--0--3--5--------------0--3--5-------------0--3--5--------------|

and then: B ? D
-VERSE 4 = Same as guitar 1
-SOLO 2
 
 E|-------------------------------12----12----12------12-15-12----12--|
 B|--12----12----12---------------15b17-15b17-15b17-15---------15-----|
 G|--14b16-14b16-14b16-^16r14-12--------------------------------------|
 D|-------------------------------------------------------------------|
 A|-------------------------------------------------------------------|
 E|-------------------------------------------------------------------|
 E|-------------------------------------------------------------------|
 B|--12----12----12-----------------1212121212121212-1515151515151515-|
 G|--14b16-14b16-14b16-14-12-14-12--1111111111111111-1414141414141414-|
 D|---------------------------------9-9-9-9-9-9-9-9--1212121212121212-|
 A|-------------------------------------------------------------------|
 E|-------------------------------------------------------------------|
 E|-------------------------------12----12----12----------------------|
 B|--12----12----12---------------15b17-15b17-15b17r15-13-------------|
 G|--14b16-14b16-14b16-^16r14-12--------------------------------------|
 D|-------------------------------------------------------------------|
 A|-------------------------------------------------------------------|
 E|-------------------------------------------------------------------|
 E|-------------------------------------------------------------------|
 B|--12----12----12-----------------1212121212121212-1515151515151515-|
 G|--14b16-14b16-14b16-14-12-14-12--1111111111111111-1414141414141414-|
 D|---------------------------------9-9-9-9-9-9-9-9--1212121212121212-|
 A|-------------------------------------------------------------------|
 E|-------------------------------------------------------------------|

End on E~

Important: The song above is NOT stored on the Chordie server. The original song is hosted at www.azchords.com. Chordie works as a search engine and provides on-the-fly formatting. Chordie does not index songs against artists'/composers' will. To remove this song please click here.

Text color:
Chord color:
Chord grids: 
Font size:    
Page size: 

A B C D E G
Rate #1 of 2 versions

Login - add to songbook

SHARE PAGE  




You need to log in to post comments