Guitar Tabs, Chords and Lyrics
Server problems seems to be fixed. Chordie has been experiencing problems with songs disappearing. These issues now seems to be fixed, but still verifying the fix. If you find anything strange, please email admin@chordie.com.


Wake Up  Fightstar

 
 -----------------------------------------------------------------------------
 -----------------------------------------------------------------------------

Kinda surprised no one has tabbed this yet - pretty easy tune but great songwriting from
band. Not sure abt the name of the 4th chord but here is the tab for the chords used:
[Eb5] [F#] [C#5] [C/G#]  
 
 e|-------------------------------------------------------------------------|
 B|-------------------------------------------------------------------------|
 G|---------------------6--------6------------------------------------------|
 D|--8--------4---------6--------6------------------------------------------|
 A|--8--------4---------4--------3------------------------------------------|
 E|--6--------2-------------------------------------------------------------|

Riff 1
 
 e|-------------------------------------------------------------------------|
 B|-9---------9---------9--------9------------------------------------------|
 G|---6-5-6-----6-5-6-----6-5-6----6-5-6------------------------------------|
 D|-------------------------------------------------------------------------|
 A|-------------------------------------------------------------------------|
 E|-------------------------------------------------------------------------|

INTRO:- Eb5 F# C#5 C/G#
[Eb5]If you have the answers[F#] to all of my questio[C#5]ns,
Why are you[C/G#] her,
[Eb5]Turn around, f[F#]ace me now,
[C#5]I promise you t[C/G#]hey'll let you in.[Eb5]
[Eb5]I don't mean to m[F#]ake you so upset,
[C#5]But the air is so[C/G#] thin and I'm losing sle[Eb5]ep.
[Eb5]Blackened and [F#]unrested,
[C#5]Replace your armour[C/G#] to make this stand.[Eb5]
[Eb5]Bring me round to[F#] let me down,
[C#5]Take this for eve[C/G#]r so I can sleep quiet,
[Eb5]I'll wait around [F#]to let you in[C#5],
What has [C/G#]begun.
[Eb5]I don't mean to make[F#] you so upset,
[C#5]But the air is so[C/G#] thin and I'm losing sleep.
[Eb5]I don't mean to ma[F#]ke you so upset,
[C#5]But the air is so [C/G#]thin and I'm losing sleep.
OUTRO
[B5]Wake Up.
[F#5]Wake Up.
[C#5]Wake Up.
repeat this until end...
You laid me down to sleep.
| / slide up
| \ slide down
| h hammer-on
| p pull-off
| ~ vibrato
| + harmonic
| x Mute note
=============================================================================

Important: The song above is NOT stored on the Chordie server. The original song is hosted at www.azchords.com. Chordie works as a search engine and provides on-the-fly formatting. Chordie does not index songs against artists'/composers' will. To remove this song please click here.

Text color:
Chord color:
Chord grids: 
Font size:    
Page size: 

B5 C#5 C/G# Eb5 F# F#5
Rate #1 of 1 versions

Jango Player

Login - add to songbook

SHARE PAGE  



You need to log in to post comments