Guitar Tabs, Chords and Lyrics
Server problems seems to be fixed. Chordie has been experiencing problems with songs disappearing. These issues now seems to be fixed, but still verifying the fix. If you find anything strange, please email admin@chordie.com.


My Long Walk to Jail  Filter

Guitarists: Geno Lenardo & Richard Patrick
All guitars are in Drop D tuning down one whole step
low to high (C G C F A D)
Notation Legend
h = hammer on
~~ = vibrato
P.M. = palm mute
^(1/4) = microtone bend
harm = natural harmonic
(/) = legato slide up (first note struck only)
Intro (0:09)
Gtr. 1 (w/ dist.)
Riff A
~~~~ ~~~~
 
 D-----------------------------|------------------------------|
 A-----------------------------|------------------------------|
 F-----------------------------|------------------------------|
 C-----------------------------|------------------------------|
 G------------3-------------3--|------------3--------------3--|
 C--0--0-0h5------0--0-0h5-----|--0--0-0h5------0---0-0h5-----|

End Riff A
~~~~ ~~~~
 
 D-----------------------------|------------------------------|
 A-----------------------------|------------------------------|
 F-----------------------------|------------------------------|
 C-----------------------------|------------------------------|
 G------------3-------------3--|------------3--------------0--|
 C--0--0-0h5------0--0-0h5-----|--0--0-0h5------0---0-0h5-----|

~~~~ ~~~~
 
 D-----------------------------|------------------------------|
 A-----------------------------|------------------------------|
 F-----------------------------|------------------------------|
 C-----------------------------|------------------------------|
 G------------3-------------3--|------------3--------------3--|
 C--0--0-0h5------0--0-0h5-----|--0--0-0h5------0---0-0h5-----|

~~~~ ~~~~ [G5]*[A5]
 
 D-----------------------------|------------------------------|
 A-----------------------------|------------------------------|
 F-----------------------------|------------------------------|
 C-----------------------------|--------------------5--5--7---|
 G------------3-------------3--|------------3-------5--5--7---|
 C--0--0-0h5------0--0-0h5-----|--0--0-0h5------0---5--5--7---|

*dbld by gtr. 2 (dist.)
Gtrs. 1 & 2
Riff A1
[D5] [G5] [C5]  
 
 D----------------------------|----------------------------|
 A----------------------------|----------------------------|
 F----------------------------|----------------------------|
 C--0--0-0h5-10--0--0-0h5-10--|--0--0-0h5-10--0--0-0h5-10--|
 G--0--0-0h5-10--0--0-0h5-10--|--0--0-0h5-10--0--0-0h5-10--|
 C--0--0-0h5-10--0--0-0h5-10--|--0--0-0h5-10--0--0-0h5-10--|

End Riff A1
 
 D----------------------------|----------------------------|
 A----------------------------|----------------------------|
 F----------------------------|----------------------------|
 C--0--0-0h5-10--0--0-0h5-10--|--0--0-0h5-10--0--0-0h5--7--|
 G--0--0-0h5-10--0--0-0h5-10--|--0--0-0h5-10--0--0-0h5--7--|
 C--0--0-0h5-10--0--0-0h5-10--|--0--0-0h5-10--0--0-0h5--7--|

Verse 1 (0:52)
 
 D------------|
 A------------|
 F------------|
 C------------|
 G---------0--|
 C--0-0h5-----|

Gtr. 1 w/ Riff A 1 time
Pre-Chorus (1:04)
Gtrs. 1 & 2
P.M. P.M. P.M.
 
 D------------------------------------|------------------------------------|
 A------------------------------------|------------------------------------|
 F------------------------------------|------------------------------------|
 C------------------------------------|------------------------------------|
 G-----------5-3-0------------3----3--|-----------5-3-0------------3----5--|
 C--0-7-6-0--------3^(1/4)--0-3--0-3--|--0-7-6-0--------3^(1/4)--0-3--0-5--|

P.M. P.M. P.M.
 
 D------------------------------------|------------------------------------|
 A------------------------------------|------------------------------------|
 F------------------------------------|------------------------------------|
 C------------------------------------|------------------------------------|
 G-----------5-3-0------------3----3--|-----------5-3-0------------3----5--|
 C--0-7-6-0--------3^(1/4)--0-3--0-3--|--0-7-6-0--------3^(1/4)--0-3--0-5--|

Chorus (1:14)
Gtrs. 1 & 2
[Gsus2] P.M.--| P.M.--|[Bbsus2]
 
 D--------------------------------|----------------------------|
 A--------------------------------|----------------------------|
 F--------------------------------|----------------------------|
 C--7----------7-----------7-7-7--|--10-10---------------------|
 G--5----------5-----------5-5-5--|---8--8---------0--3--0--3--|
 C--5--5-5-5---5--5-5-5----5-5-5--|---8--8--0--3---0--3--0--3--|

P.M.--| P.M.--| Csus2
 
 D--------------------------------|---------------------------|
 A--------------------------------|---------------------------|
 F--------------------------------|---------------------------|
 C--7----------7-----------7-7-7--|--10-10----12-12----12-12--|
 G--5----------5-----------5-5-5--|---8--8----10-10----10-10--|
 C--5--5-5-5---5--5-5-5----5-5-5--|---8--8----10-10----10-10--|
 P.M.--| P.M.--| harm---|
 D--------------------------------|----------------------------|
 A--------------------------------|----------------------------|
 F--------------------------------|----------------------------|
 C--7----------7-----------7-7-7--|--10-10---------------------|
 G--5----------5-----------5-5-5--|---8--8---------------------|
 C--5--5-5-5---5--5-5-5----5-5-5--|---8--8--0--3---0--3--3--3--|

P.M.--| P.M.--| harm
 
 D--------------------------------|----------------------------|
 A--------------------------------|----------------------------|
 F--------------------------------|----------------------------|
 C--7----------7-----------7-7-7--|--10-10----12--12----12-12--|
 G--5----------5-----------5-5-5--|---8--8----10--10----10-10--|
 C--5--5-5-5---5--5-5-5----5-5-5--|---8--8--0-10--10--3-10-10--|
 D-------------------------|
 A-------------------------|
 F-------------------------|
 C--0----------------------|
 G--0----------------------|
 C--0----------------------|

Bridge (1:42)
Gtrs. 1 & 2 w/ Riff A1 1 1/2 times
Gtr. 1 w/ Riff A 1 time
Verse 2 (2:09)
Gtr. 1 w/ Riff A 2 times
Pre-Chorus 2 (2:31)
Gtrs. 1 & 2
Riff B
P.M. P.M. P.M.
 
 D------------------------------------|------------------------------------|
 A------------------------------------|------------------------------------|
 F------------------------------------|------------------------------------|
 C------------------------------------|------------------------------------|
 G-----------5-3-0------------3----3--|-----------5-3-0------------3----5--|
 C--0-7-6-0--------3^(1/4)--0-3--0-3--|--0-7-6-0--------3^(1/4)--0-3--0-5--|

End Riff B
P.M. P.M.
 
 D------------------------------------|-----------------------------------|
 A------------------------------------|-----------------------------------|
 F------------------------------------|-----------------------------------|
 C------------------------------------|-----------------------------------|
 G-----------5-3-0------------3----3--|-----------5-3-0-------------------|
 C--0-7-6-0--------3^(1/4)--0-3--0-3--|--0-7-6-0--------3^(1/4)--0--0--0--|

Chorus 2 (2:43)
Gtrs. 1 & 2
P.M.--| P.M.--| harm
 
 D--------------------------------|----------------------------|
 A--------------------------------|----------------------------|
 F--------------------------------|----------------------------|
 C--7----------7-----------7-7-7--|--10-10---------------------|
 G--5----------5-----------5-5-5--|---8--8---------0-----3--3--|
 C--5--5-5-5---5--5-5-5----5-5-5--|---8--8--0--3---0--3--3--3--|

P.M.--| P.M.--|
 
 D--------------------------------|---------------------------|
 A--------------------------------|---------------------------|
 F--------------------------------|---------------------------|
 C--7----------7-----------7-7-7--|--10-10----12-12----12-12--|
 G--5----------5-----------5-5-5--|---8--8----10-10----10-10--|
 C--5--5-5-5---5--5-5-5----5-5-5--|---8--8----10-10----10-10--|

P.M.--| P.M.--| harm-|
 
 D--------------------------------|----------------------------|
 A--------------------------------|----------------------------|
 F--------------------------------|----------------------------|
 C--7----------7-----------7-7-7--|--10-10---------------------|
 G--5----------5-----------5-5-5--|---8--8--3--3---------3--3--|
 C--5--5-5-5---5--5-5-5----5-5-5--|---8--8--3--3---3--3--3--3--|

P.M.--| P.M.--| harm
 
 D--------------------------------|----------------------------|
 A--------------------------------|----------------------------|
 F--------------------------------|----------------------------|
 C--7----------7-----------7-7-7--|--10-10----12--12----12-12--|
 G--5----------5-----------5-5-5--|---8--8----10--10----10-10--|
 C--5--5-5-5---5--5-5-5----5-5-5--|---8--8--0-10--10--3-10-10--|
 D-------------------------|
 A-------------------------|
 F-------------------------|
 C--0----------------------|
 G--0----------------------|
 C--0----------------------|

Bridge (3:10)
Gtrs. 1 & 2 w/ Riff A1 4 times
Gtr. 3 w/ dist. & wah (enters 3rd time)
(3:28)
fade in 3:32 play 2 times
 
 D----------|----------------------------------|-------------------------------|
 A----------|----------------------------------|-------------------------------|
 F--7-------|--11-11-11--11(/)12---14-14-14-14-|-11-11-11-11(/)12--14--17--12--|
 C--X-------|---X--X--X---X----X----X--X--X--X-|--X--X--X--X----X---X---X---X--|
 G--5-------|---9--9--9---9(/)10---12-12-12-12-|--9--9--9--9(/)10--12--15--10--|
 C----------|----------------------------------|-------------------------------|

Gtr. 4 (w/ dist. & wah)
play 2 times
 
 D----------|----------------------------------|-------------------------------|
 A----------|----------------------------------|-------------------------------|
 F----------|-----------------------7--7--7--7-|-------------------------------|
 C----------|-----------------------X--X--X--X-|-------------------------------|
 G----------|-----------------------5--5--5--5-|-------------------------------|
 C----------|----------------------------------|-------------------------------|

Outro (3:54)
Gtrs. 1 & 2 w/ Riff B 1 time

Important: The song above is NOT stored on the Chordie server. The original song is hosted at www.azchords.com. Chordie works as a search engine and provides on-the-fly formatting. Chordie does not index songs against artists'/composers' will. To remove this song please click here.

Text color:
Chord color:
Chord grids: 
Font size:    
Page size: 

A5 Bbsus2 C5 D5 G5 Gsus2
Rate #1 of 1 versions

Login - add to songbook

SHARE PAGE  




You need to log in to post comments