Guitar Tabs, Chords and Lyrics
Server problems seems to be fixed. Chordie has been experiencing problems with songs disappearing. These issues now seems to be fixed, but still verifying the fix. If you find anything strange, please email admin@chordie.com.


Condenser  Finger Eleven

\"Condenser\"
Original Tab, by Nick Halm
Tuning: Eb Ab Db Gb Bb Eb
One half step down...
Palm muted...played once at very beginning
 
 Eb|-----------------|
 Bb|-----------------|
 Gb|-----------------|
 Db|---4-4-4\\7-7\\9---|
 Ab|---4-4-4\\5-5\\9---|
 Eb|---2-2-2\\5-5\\7---|

Have your jam partner play this...
 
 |---2h3h2h3h2h3---|
 |-----------------|
 |-----------------|
 |-----------------|
 |-----------------|
 |-----------------|

Riff 1
 
 |------------------------------------------------|
 |------------------------------------------------|
 |---------------4-4-4\\5-5------------------------|
 |---4-4-4\\7-7---4-4-4\\5-5--4-4-4-X-X-4-4-4-X-X---|
 |---4-4-4\\7-7---2-2-2\\3-3--4-4-4-X-X-4-4-4-X-X---|
 |---2-2-2\\5-5--------------2-2-2-X-X-2-2-2-X-X---|

X2
_______________________ ______
Riff 2 |1. |2.
 
 |--------------------------|-----------------------|-----|
 |--------------------------|-----------------------|-----|
 |---------------5-5-5------|----------------------o|-----|
 |---4-4-4\\3-3---3-3-3-5-5--|-4-4-4-X-X-4-4-4-X-X---|-4---|
 |---4-4-4\\3-3---3-3-3-5-5--|-4-4-4-X-X-4-4-4-X-X--o|-4---|
 |---2-2-2\\1-1---------3-3--|-2-2-2-X-X-2-2-2-X-X---|-2---|

E chord = riff 3
 
 |------------------------------|
 |------------------------------|
 |---10-10-10-10--10-10-10-10---|
 |---10-10-10-10--10-10-10-10---|
 |---8--8--8--8---8--8--8--8----|
 |------------------------------|

[F]Felt the best that [C#]I could feel
Censored every [A#]memory
E(riff 3)
Give me yours so I can feed mine
[F]Anywhere but far a[C#]way
Can\'t be what you meant to[A#] say
E(riff 3)
I won\'t miss you in the meantime
All jokes aside.... you should decide...
You should be allowed but you were beat out...
 
 |-----------------------------------------------------------------|
 |-----------------------------------------------------------------|
 |-----------------------7-7-X-X-X-7-7-X-X-X-----------------------|
 |---4-4-X-X-X-4-4-X-X-X-7-7-X-X-X-7-7-X-X-X-9-9-X-X-X-9-9-X-X-X---|
 |---4-4-X-X-X-4-4-X-X-X-5-5-X-X-X-5-5-X-X-X-9-9-X-X-X-9-9-X-X-X---|
 |---2-2-X-X-X-2-2-X-X-X---------------------7-7-X-X-X-7-7-X-X-X---|

If it pleases or pains you
So nothing can save you
 
 |------------------------------|
 |------------------------------|
 |---10-10-10-10--10-10-10-10---|
 |---10-10-10-10--10-10-10-10---|
 |---8--8--8--8---8--8--8--8----|
 |------------------------------|

Play that twice and then it\'s back to:
That\'s just what I see...
That\'s what I came to see...
 
 |------------------------------------------------|
 |------------------------------------------------|
 |---------------4-4-4\\5-5------------------------|
 |---4-4-4\\7-7---4-4-4\\5-5--4-4-4-X-X-4-4-4-X-X---|
 |---4-4-4\\7-7---2-2-2\\3-3--4-4-4-X-X-4-4-4-X-X---|
 |---2-2-2\\5-5--------------2-2-2-X-X-2-2-2-X-X---|

Now you shut me out...
 
 |--------------------------|-----------------------|
 |--------------------------|-----------------------|
 |---------------5-5-5------|-----------------------|
 |---4-4-4\\3-3---3-3-3-5-5--|-4-4-4-X-X-4-4-4-X-X---|
 |---4-4-4\\3-3---3-3-3-5-5--|-4-4-4-X-X-4-4-4-X-X---|
 |---2-2-2\\1-1---------3-3--|-2-2-2-X-X-2-2-2-X-X---|

Riff 2 once more...end it with F once
[F]Closing up until the e[C#]nd
Try to start it up ag[A#]ain
E (riff 3)
Lower voice and tired heartbeats
[F]Take away the self es[C#]teem
force it through to get re[A#]lief
E (riff 3)
Taking everything that I need
All jokes aside.... you should decide...
You should be allowed but you were beat out...
 
 |-----------------------------------------------------------------|
 |-----------------------------------------------------------------|
 |-----------------------7-7-X-X-X-7-7-X-X-X-----------------------|
 |---4-4-X-X-X-4-4-X-X-X-7-7-X-X-X-7-7-X-X-X-9-9-X-X-X-9-9-X-X-X---|
 |---4-4-X-X-X-4-4-X-X-X-5-5-X-X-X-5-5-X-X-X-9-9-X-X-X-9-9-X-X-X---|
 |---2-2-X-X-X-2-2-X-X-X---------------------7-7-X-X-X-7-7-X-X-X---|

If it pleases or pains you
 
 |------------------------------|
 |------------------------------|
 |---10-10-10-10--10-10-10-10---|
 |---10-10-10-10--10-10-10-10---|
 |---8--8--8--8---8--8--8--8----|
 |------------------------------|

Spirits all keep coming down
 
 |----------|
 |----------|
 |---10--9--|
 |---10--9--|
 |---8---7--|
 |----------|

Cover up with answers
I\'ll cut my teeth in slivers
You\'re up and gone and sensless
Broken open your abscess
Repeat... Play at the end of each line
 
 |-------2----2---2-------------|---2-3-2-3-2-3-2-3-2---|
 |-----0---0----0---0-----------|-----------------------|
 |------------------------------|-----------------------|
 |------------------------------|-----------------------|
 |------------------------------|-----------------------|
 |------------------------------|-----------------------|
 |----------------------------------|
 |----------------------------------|
 |---4-4-X-X-X-4-4-X-X-X4-4---------|
 |---4-4-X-X-X-4-4-X-X-X4-4-5-5-5---|
 |---2-2-X-X-X-2-2-X-X-X2-2-5-5-5---|
 |--------------------------3-3-3---|

Play once
then...4 more times
Is it all or is it none
I can\'t decide
Closing all one way doors
Till I am left outside
That\'s just what I see
That\'s what I came to see
now you shut me out
I feel left out
That\'s just what I see
That\'s what I came to see
Now you shut me out
I feel left out
Now you shut me out
Sing that, while playing below...
 
 |------------------------------------------------|
 |------------------------------------------------|
 |---------------4-4-4\\5-5------------------------|
 |---4-4-4\\7-7---4-4-4\\5-5--4-4-4-X-X-4-4-4-X-X---|
 |---4-4-4\\7-7---2-2-2\\3-3--4-4-4-X-X-4-4-4-X-X---|
 |---2-2-2\\5-5--------------2-2-2-X-X-2-2-2-X-X---|

X3
 
 |--------------------------|-----------------------|
 |--------------------------|-----------------------|
 |---------------5-5-5------|-----------------------|
 |---4-4-4\\3-3---3-3-3-5-5--|-4-4-4-X-X-4-4-4-X-X---|
 |---4-4-4\\3-3---3-3-3-5-5--|-4-4-4-X-X-4-4-4-X-X---|
 |---2-2-2\\1-1---------3-3--|-2-2-2-X-X-2-2-2-X-X---|

X1
 
 |------------------------------------------------|
 |------------------------------------------------|
 |---------------4-4-4\\5-5------------------------|
 |---4-4-4\\7-7---4-4-4\\5-5--4-4-4-X-X-4-4-4-X-X---|
 |---4-4-4\\7-7---2-2-2\\3-3--4-4-4-X-X-4-4-4-X-X---|
 |---2-2-2\\5-5--------------2-2-2-X-X-2-2-2-X-X---|

X3
 
 |--------------------------|-----------------------|---------------------|
 |--------------------------|-----------------------|---------------------|
 |---------------5-5-5------|----------------------o|---------------------|
 |---4-4-4\\3-3---3-3-3-5-5--|-4-4-4-X-X-4-4-4-X-X---|-4-4-4-X-X-4-4-4-X---|
 |---4-4-4\\3-3---3-3-3-5-5--|-4-4-4-X-X-4-4-4-X-X--o|-4-4-4-X-X-4-4-4-X---|
 |---2-2-2\\1-1---------3-3--|-2-2-2-X-X-2-2-2-X-X---|-2-2-2-X-X-2-2-2-X---|

X2

Important: The song above is NOT stored on the Chordie server. The original song is hosted at www.azchords.com. Chordie works as a search engine and provides on-the-fly formatting. Chordie does not index songs against artists'/composers' will. To remove this song please click here.

Text color:
Chord color:
Chord grids: 
Font size:    
Page size: 

A# C# F
Rate #1 of 1 versions

Jango Player

Login - add to songbook

SHARE PAGE  




You need to log in to post comments