Guitar Tabs, Chords and Lyrics
Server problems seems to be fixed. Chordie has been experiencing problems with songs disappearing. These issues now seems to be fixed, but still verifying the fix. If you find anything strange, please email admin@chordie.com.


One Thing  Finger Eleven

This is my First Tab so go easy and dont get mad, is a really easy song, it's NOT
the official tab, but it sounds good to me!
CAPO 1st FRET in standard tunning...
 
 -------------------------------------------------------------------------------

One Thing - Finger Eleven
 
 -------------------------------------------------------------------------------

Tuning: standard
Intro & First Verse
Restless tonight
Cause I wasted the light
Between both these times
I drew a really thin line
It's nothing I planned
And not that I can
But you should be mine
Across that line
 
 e|-3-----3------0-----0-----8-----8------3-------------------------|
 B|---3-----3------3-----3-----6-----6----3-------------------------|
 G|-----0-----0------0-----0-----0-----0----------------------------|
 D|-----------------------------------------------------------------|
 A|-----------------------------------------------------------------|
 E|-3------------3--------------------------------------------------|

the chorus can be played with this chord progression
G* C* E* D5 Dsus2
 
 e|---3------3------3-----0----3-----------------------------|
 B|---3------3------3-----3----3-----------------------------|
 G|---0------0------0-----2----2-----------------------------|
 D|---0------2------2-----0----0-----------------------------|
 A|---2------3------2-----0----0-----------------------------|
 E|---3------0------0-----0----0-----------------------------|

(Chorus x2)
G*
If I traded it all
C* E*
If I gave it all away for one thing
Just [D5]for one t[Dsus2]hing
G*
If I sorted it out
C* E*
If I knew all about this one thing
Wou[D5]ldn't that be somethin[Dsus2]g
Repeat Intro for these 2 verses
I promise I might
Not walk on by
Maybe next time
But not this time
Even though I know
I don't want to know
Yeah I guess I know
I just hate how it sounds
questions?

Important: The song above is NOT stored on the Chordie server. The original song is hosted at www.azchords.com. Chordie works as a search engine and provides on-the-fly formatting. Chordie does not index songs against artists'/composers' will. To remove this song please click here.

Text color:
Chord color:
Chord grids: 
Font size:    
Page size: 

D5 Dsus2
Rate #1 of 2 versions

Jango Player

Login - add to songbook

SHARE PAGE  



You need to log in to post comments