Guitar Tabs, Chords and Lyrics
Server problems seems to be fixed. Chordie has been experiencing problems with songs disappearing. These issues now seems to be fixed, but still verifying the fix. If you find anything strange, please email admin@chordie.com.


Love Ridden  Fiona Apple

Fiona Apple - Love Ridden
[Intro] 
[Em] [F] [C/G] [Em] [Cdim] [C/G]  
 
 e|-------------------------|---------|-------------------------|---------|
 B|-------------------------|---------|-------------------------|---------|
 G|-------0-----2-----2-----|---------|-------0-----2-----2-----|---------|
 D|-----2---2-------3---3---|-2-------|-----2---2-------1---1---|-2-------|
 A|---2-------2-------------|-3-------|---2-------2-3-----------|-3-------|
 E|-0-----------1-----------|-3-------|-0-----------------------|-3-------|

[Verse 1] 
[Em] Love [F]ridden, I've [C]looked at you
With the [Em]focus I [Cdim]gave to my [C]birthday candles
[G] I've wished on the [F]lidded blue [Em]flames
Under your [C]brow
And baby, I [B7]wished for you
[Verse 2] 
[Em] Nobody [Cdim]sees when you are [C]lying in your bed
And I wanna[G] crawl in [F]with you but [C]I cry instead
[G] I want your [F]warm but it will [Em]only make me colder
[C]When it's over
So I [B7]can't tonight, baby
[Cborus] 
[G] No, [F]not baby [Em]any more
If I [G]need you I'll just [F]use your sim[Em]ple name [C]
[G] Only [B7]kisses on the [Em]cheek from now [B7]on
And [G]in a little wh[F]ile we'll only [Am]have to wave[C]
[Bridge] 
[Fdim] My hand won't hold you down no more
The [C]path is [Bm]clear to follow [Am]through
[Fdim] I stood too long in the way of the door
And [C]now I'm [Eb]giving up [D]on...
[Interlude] 
[C] [C/B] [C/Bb]  
 
 e|---------------------|---------------------|----------------------|
 B|-------1-----1-----1-|-------1-----1-----1-|-------1--------------|
 G|---------------------|---------------------|----------------------|
 D|-----2-----2-----2---|-----2-----2-----2---|-----2----------------|
 A|-3-------------------|-2-------------------|-1--------------------|
 E|---------------------|---------------------|----------------5--4--|

you...
G N.C.
 
 e|---------------------|---------------------|----------------------|
 B|-----0--0------------|-0--0----------------|-0--0-----------------|
 G|-----0--0------------|-0--0----------------|-0--0-----------------|
 D|---0---------------0-|-------------------0-|----------------------|
 A|---------------------|---------------------|----------------------|
 E|-3-------------------|---------------------|----------------------|

[Em] [F] [C/G] [Em] [Cdim] [C/G] [C] [C6] [Cmaj7]  
 
 e|-------------------------|---------|-------------------------|-------------------|
 B|-------------------------|---------|-------------------------|---------1---1---0-|
 G|-------0-----2-----2-----|---------|-------0-----2-----2-----|---------0---2---0-|
 D|-----2---2-------3---3---|-2-------|-----2---2-------1---1---|-2-----2-2---2---2-|
 A|---2-------2-------------|-3-------|---2-------2-3-----------|-3-------3---3---3-|
 E|-0-----------1-----------|-3-------|-0-----------------------|-3-----------------|

[Cborus] 
[G] No, [F]not baby [Em]any more
If I [G]need you I'll just [F]use your sim[Em]ple name [C]
[G] Only [B7]kisses on the [Em]cheek from now [B7]on
And [G]in a little wh[F6]ile we'll only [Am]have to wa[C]-ve
[G] No, [F]not baby [Em]any more
If I [G]need you I'll just [F]use your sim[Em]ple name [C]
[G] Only [B7]kisses on the [Em]cheek from now [B7]on
And [G]in a little wh[F6]ile we'll only [Am]have to wave [G]

Important: The song above is NOT stored on the Chordie server. The original song is hosted at www.azchords.com. Chordie works as a search engine and provides on-the-fly formatting. Chordie does not index songs against artists'/composers' will. To remove this song please click here.

Text color:
Chord color:
Chord grids: 
Font size:    
Page size: 

Am B7 Bm C C/B C/G C6 Cdim Cmaj7 D Eb Em F F6 Fdim G
Rate #1 of 3 versions

Jango Player

Login - add to songbook

SHARE PAGE  




You need to log in to post comments