Guitar Tabs, Chords and Lyrics
Update 25:10. 13:00. Site is back up running again. Songbooks are recovered. Woring on getting search back up..


White Winter Hymnal  Fleet Foxes

 
 -------------------------------------------------------------------------------

White Winter Hymnal ?? Fleet Foxes
 
 -------------------------------------------------------------------------------

Tuning: Standard
Chords:
[E] [F#m] [A] [B7] [Amaj7]  
 
 e|---0----2----0----2----0---------------------------------------------------|
 B|---0----2----2----4----2---------------------------------------------------|
 G|---1----2----2----2----1---------------------------------------------------|
 D|---2----4----2----4----2---------------------------------------------------|
 A|---2----4----0----2----0---------------------------------------------------|
 E|---0----2----0----2----0---------------------------------------------------|

Verse chords:
[E]I was following the pack all swallowed in their coats, the scarves of
red tied round their th[F#m]roats to keep their little heads from fallin'
in the snow, and I turned 'round and there you [A]go, and Michael you
had fall'n and turned the wh[B7]ite snow red as strawberries in the
summertime
Main riff: (listen to the song to get the rhythm)
[E] [A] [E]  
 
 e----------------------------------------------------------------------------|
 B----------------------------------------------------------------------------|
 G---------1-------4-1-------1------------------------------------------------|
 D-----2-4-------2----4-2-4----4--2--4-2---------2-----------1----------------|
 A-2--4--------4-------------------------4--4-2-4---4-2---2-4---4-------------|
 E------------------------------------------------------4---------------------|

Riff 2:
[B7] [Amaj7] [E]  
 
 e----------------------------------------------------------------------------|
 B----------------------------------------------------------------------------|
 G-2---4---6---8---6--4----1--1-----------------------------------------------|
 D-----------------------4------4-2-------------------------------------------|
 A----------------------------------4-2---------------------------------------|
 E----------------------------------------------------------------------------|

Order:
Vocal intro
Verse
Main riff x1
Verse
Main riff x2
Riff 2
Vocal out
Overall a simple little tune, but an enjoyable one. Have fun
-Matt
| / slide up
| \ slide down
| h hammer-on
| p pull-off
| ~ vibrato
| + harmonic
| x Mute note
===============================================================================

Important: The song above is NOT stored on the Chordie server. The original song is hosted at www.azchords.com. Chordie works as a search engine and provides on-the-fly formatting. Chordie does not index songs against artists'/composers' will. To remove this song please click here.

Text color:
Chord color:
Chord grids: 
Font size:    
Page size: 

A Amaj7 B7 E F#m
Rate #1 of 9 versions

Login - add to songbook

SHARE PAGE  



You need to log in to post comments