Guitar Tabs, Chords and Lyrics
Update 25:10. 13:00. Site is back up running again. Songbooks are recovered. Woring on getting search back up..


Right Way to Fly  Flickerstick

Transcribe by: Kevin
Standard Tuning: EADGBE
Chords
G5 (355xxx)
C5 (x355xx)
D5 (x577xx)
B5 (x244xx)
F#5 (244xxx)
A5 (577xxx)
Intro (Rex over Cory‚??s chords)
[G5] [C5] [G5] [B5] [C5]  
 
 E-------------------------------------------------------------------------|
 B-------------------------------------------------------------------------|
 G----------12-12-12----------12-12-12----------12-12-12-------------------|
 D-------------------12-12-12----------12-12-12----------14-14-14-14-12-10-|
 A‚??5/14-14-----------------------------------------------------------------|
 E-------------------------------------------------------------------------|

[G5] [C5] [D5] [B5] [C5]  
 
 E----------------------------------------------------------------------------------|
 B----------------------------------------------------------------------------------|
 G----------12-14-12-12----------12-14-12-12----------12-14-12-12-------------------|
 D----------------------12-12-12-------------12-12-12-------------14-14-14-14-12-10-|
 A-14-14-14-------------------------------------------------------------------------|

Verse
(Brandin)
 
 E-----------------------3--|
 B-----------------------3--|
 G----0‚??-0-‚??0‚??-0‚??-0‚??-0------|
 D---0‚??-0‚??-0‚??-0‚??-0‚??-0-------|
 A‚??-3‚??-2‚??-3‚??-2‚??-3‚??-2‚??-3-----|
 E--------------------------| REPEAT 2 MORE TIMES WITH LYRICS, THEN
 E------------------------------|------------------------|
 B------------------------------|------------------------|
 G------0--0--0--0--0--0--0--0--|----0--0--0--0--0--0----|
 D-----0--0--0--0--0--0--0--0---|---0--0--0--0--0--0-----|
 A---10-12-10-12-10-12-10-12----|--3--2--3--2--3--2--3---|
 E------------------------------|------------------------|

Chorus
(Both Rex and Cory)
[G5] [F#5] [C5] [B5] [A5]  
I feel al[G5]right some[F#5]times
So [C5]look out [B5]yester[A5]day
Tearing [G5]out the [F#5]thoughts
With [C4]every [B4]word you [A5]say
Cause I know there‚??s
A [G5]right [F#5]way to [C5]fly
And a [A5]right way to die
So I‚??m just holdin[G5]g on[F#5] [C5] [B5] [A5]
Verse
Same progression
Chorus
Same progression
Bridge
Well [G5]time is slowly [C5]tearing me a[D5]part
So I‚??m just holdin[B5]g on
Cause I [C5]know it‚??s [G5]a ride
And it [G5]feels so hot [D5]today[B5] [C5]
De[G5]spite you‚??re holdin[C5]g everything [D5]inside
Get it [B5]out [C5]once in a [G5]while
Say good[C4]bye to yester[D5]day[B5] [C5]
I think that‚??s about it. I hope you enjoy it.

Important: The song above is NOT stored on the Chordie server. The original song is hosted at www.azchords.com. Chordie works as a search engine and provides on-the-fly formatting. Chordie does not index songs against artists'/composers' will. To remove this song please click here.

Text color:
Chord color:
Chord grids: 
Font size:    
Page size: 

A5 B4 B5 C4 C5 D5 F#5 G5
Rate #2 of 2 versions

Login - add to songbook

SHARE PAGE  



You need to log in to post comments