Guitar Tabs, Chords and Lyrics
Server problems seems to be fixed. Chordie has been experiencing problems with songs disappearing. These issues now seems to be fixed, but still verifying the fix. If you find anything strange, please email admin@chordie.com.


We Are Winning  Flobots

Tuning: Standard
Chorus
 
 e|---------------------------------------------------------------------------|
 B|---------------------------------------------------------------------------|
 G|---------------------------------------------------------------------------|
 D|-------------------------12-12-10-10-10-10-10-10h12b-10--------------------|
 A|-------12-12-12-12-12-12--------------------------------12-----------------|
 E|---------------------------------------------------------------------------|
 e|---------------------------------------------------------------------------|
 B|---------------------------------------------------------------------------| Repeat until 1:03
 G|---------------------------------------------------------------------------|
 D|-------------------------7-7-----------------------------------------------|
 A|-------10-10-10-10-10-10-----8-8-8-8-8-8h10b-br-8h10b-br-8-10-12-----------|
 E|---------------------------------------------------------------------------|

1:03 Women and Children, Front line, Log on, Tune in
Stand [Am]and be counted, wounded, st[Am]ati[Am]oned,
In the belly [C]of the vulture, wa[C]tc[C]h your back there's no civilians
Women, Children front[G] line listen[G] [G]
Conside[F]r this a distant, ea[F]rl[F]y warning
The fires immine[Am]nt pollution ga[Am]the[Am]ring dust particles
Funneling through s[C]mokestacks, airways, band[C]wi[C]dth
This information t[G]ube fed, check the lab[G]el[G]s, delete the virus
[F] [F] [F] 
 
 e|---------------------------------------------------------------------------|
 B|---------------------------------------------------------------------------|
 G|---------------------------------------------------------------------------|
 D|-------------------------12-12-10-10-10-10-10-10h12b-10--------------------|
 A|-------12-12-12-12-12-12--------------------------------12-----------------|
 E|---------------------------------------------------------------------------|
 e|---------------------------------------------------------------------------|
 B|---------------------------------------------------------------------------| Repeat until 1:58
 G|---------------------------------------------------------------------------|
 D|-------------------------7-7-----------------------------------------------|
 A|-------10-10-10-10-10-10-----8-8-8-8-8-8h10b-br-8h10b-br-8-10-12-----------|
 E|---------------------------------------------------------------------------|

1:58 Rise of the Flobot's portrait of the new american
Insurgent, rattle[Am] and shake the fou[Am]nda[Am]tions
[C]Of the world order, as[C]se[C]mbly line, incent
Resist, refus[G]e, inform, creat[G]e,[G] direct loved ones to the trenches,
Suit up, forg[F]e rubble in the [F]fo[F]rtresses[Am]
Plaster, C[Am]lot[Am]h, Aluminum, Broken Porcelain, Rusted Platinum,
[C]Burn blood stain[C]s [C]from decompressed diamonds[G],
[G]Ha[G]mmer the battle cry into braille s[F]tudded armor.
[F] [F]  
 
 e|---------------------------------------------------------------------------|
 B|---------------------------------------------------------------------------|
 G|---------------------------------------------------------------------------|
 D|-------------------------12-12-10-10-10-10-10-10h12b-10--------------------|
 A|-------12-12-12-12-12-12--------------------------------12-----------------|
 E|---------------------------------------------------------------------------|
 e|---------------------------------------------------------------------------|
 B|---------------------------------------------------------------------------| Repeat until END
 G|---------------------------------------------------------------------------|
 D|-------------------------7-7-----------------------------------------------|
 A|-------10-10-10-10-10-10-----8-8-8-8-8-8h10b-br-8h10b-br-8-10-12-----------|
 E|---------------------------------------------------------------------------|


Important: The song above is NOT stored on the Chordie server. The original song is hosted at www.azchords.com. Chordie works as a search engine and provides on-the-fly formatting. Chordie does not index songs against artists'/composers' will. To remove this song please click here.

Text color:
Chord color:
Chord grids: 
Font size:    
Page size: 

Am C F G
Rate #1 of 1 versions

Login - add to songbook

SHARE PAGE  




You need to log in to post comments