Guitar Tabs, Chords and Lyrics
Server problems seems to be fixed. Chordie has been experiencing problems with songs disappearing. These issues now seems to be fixed, but still verifying the fix. If you find anything strange, please email admin@chordie.com.


Drunken Lullabies  Flogging Molly

[G] [C] [G] [D]  
 
 e|---------------------------------------------------------------------------|
 B|---------------------------------------------------------------------------|
 D|-------------------0-------------------------------------------------------|
 G|------0--00-2-0------4-2-0-2---------0--00-2-------------------------------|
 A|---2------------2------------2----2----------2-3-2-0-00-2-0----------------|
 E|-3------------------------------3------------------------------------------|

[G] [C] [G] [D] [G]  
 
 e|---------------------------------------------------------------------------|
 B|---------------------------------------------------------------------------|
 G|-------------------0-------------------------------------------------------|
 D|------0--00-2-0------4-2-0-2---------0-------------------------------------|
 A|---2------------2------------2----2-----3-2-0-2-0--------------------------|
 E|-3------------------------------3-----------------3------------------------|

[Verse] 
[G]Must it take a life for hateful eyes
[Em]To glisten once again
[C]Five hundred years like Gelignite
[Em]Have blown us all to [D]hell
[G]What savior rests while on his cross we die
[Em]Forgotten freedom burns
[C]Has the Shepard led his lambs astray
[Em]to the bigot and the [D]gun
[Cborus] 
[C]Must it take a life for hateful [G]eyes
[C]To glisten once a[D]gain
Cause we [G]find ours[C]elves in the [Em]same old mess
Singin' [G]drunken [D]lulla[G]bies
[G] [C] [G] [D]  
 
 e|---------------------------------------------------------------------------|
 B|---------------------------------------------------------------------------|
 D|-------------------0-------------------------------------------------------|
 G|------0--00-2-0------4-2-0-2---------0--00-2-------------------------------|
 A|---2------------2------------2----2----------2-3-2-0-00-2-0----------------|
 E|-3------------------------------3------------------------------------------|

[G] [C] [G] [D] [G]  
 
 e|---------------------------------------------------------------------------|
 B|---------------------------------------------------------------------------|
 G|-------------------0-------------------------------------------------------|
 D|------0--00-2-0------4-2-0-2---------0-------------------------------------|
 A|---2------------2------------2----2-----3-2-0-2-0--------------------------|
 E|-3------------------------------3-----------------3------------------------|

[Verse] 
[G]I watch and stare as Rosin`s eyes
[Em]Turn a darker shade of red
[C]And the bullet with this sniper lie
[Em]In their bloody gutless [D]cell
[G]Must we starve on crumbs from long ago
[Em]Through these bars of men made steel
[C]Is it a great or little thing we fought
[Em]Knelt the conscience blessed to [D]kill
[Cborus] 
[C]Must it take a life for [G]hateful eyes
[C]To glisten once a[D]gain
Cause we [G]find our[C]selves in the [Em]same old mess
Singin' [G]drunken [D]lulla[G]bies
[Bridge] 
Ah, but [C]maybe it`s the [D]way we're [G]taught
Or [C]maybe it`s the [D]way we [G]fought
But a [C]smile never [D]grins without [G]tears to [C]begin
For each [C]kiss is a [D]cry we all [G]lost
Though [C]nothing left to [G]gain
But for the [C]banshee that stole the [D]grave
Cause we [G]find our[C]selves in the [Em]same old mess
Singin' [G]drunken [D]lulla[G]bies
[G] [C] [G] [D]  
 
 e|---------------------------------------------------------------------------|
 B|---------------------------------------------------------------------------|
 D|-------------------0-------------------------------------------------------|
 G|------0--00-2-0------4-2-0-2---------0--00-2-------------------------------|
 A|---2------------2------------2----2----------2-3-2-0-00-2-0----------------|
 E|-3------------------------------3------------------------------------------|

[G] [C] [G] [D] [G]  
 
 e|---------------------------------------------------------------------------|
 B|---------------------------------------------------------------------------|
 G|-------------------0-------------------------------------------------------|
 D|------0--00-2-0------4-2-0-2---------0-------------------------------------|
 A|---2------------2------------2----2-----3-2-0-2-0--------------------------|
 E|-3------------------------------3-----------------3------------------------|

[Instrumental Cborus] 
[C] [G] [C] [D] [G] [C] [Em] [G] [D] [G]  
[Verse] 
[G]I sit in and dwell on faces past
[Em]Like memories seem to fade
[C]No colour left but black and white
[Em]And soon will all turn [D]grey
[G]But may these shadows rise to walk again
[Em]With lessons truly learnt
[C]When the blossom flowers in each our hearts
[Em]Shall beat a new found [D]flame
[Cborus] 
[C]Must it take a life for [G]hateful eyes
[C]To glisten once a[D]gain
Cause we [G]find our[C]selves in the [Em]same old mess
Singin' [G]drunken [D]lulla[G]bies
Cause we [G]find our[C]selves in the [Em]same old mess
Singin' [G]drunken [D]lulla[G]bies
Singin' [G]drunken [D]lulla[G]bies

Important: The song above is NOT stored on the Chordie server. The original song is hosted at www.azchords.com. Chordie works as a search engine and provides on-the-fly formatting. Chordie does not index songs against artists'/composers' will. To remove this song please click here.

Text color:
Chord color:
Chord grids: 
Font size:    
Page size: 

C D Em G
Rate #1 of 9 versions

Login - add to songbook

SHARE PAGE  



You need to log in to post comments