Guitar Tabs, Chords and Lyrics
Update 25:10. 13:00. Site is back up running again. Songbooks are recovered. Woring on getting search back up..


Float  Flogging Molly

‚??Float‚??
By Flogging Molly
chords used:
[Am7] [Am6] [Fmaj7/A] [Am] [C] 
[Dm]  
 
 e|---3--------2------1--------0-------0---3---1-----------|
 B|---1--------1------1--------1-------1---3---3-----------|
 G|---2--------2------2--------2-------0---0---2-----------|
 D|---2--------2------2--------2-------2---0---0-----------|
 A|---0--------0------0--------0-------3---2---------------|
 E|----------------------------------------3---------------|

[Am7]drank away the rest of the day
[Am6]wonder what my liver'd say
[Fmaj7/A]drink, it's all you [Am]can
[Am7]blackened days with their bigger gales
blow [Am6]in your parlor to discuss the day
[Fmaj7/A]listen, it's all you [Am]can
but [C]don't, don't sink the [G]boat
that you n[Dm]eed, you build to keep af[Am]loat.
no [C]don't, don't sink the b[G]oat
that you b[Dm]uilt...
[Am7]sick and tired of what to say
[Am6]jumped away from the ball and chain
[Fmaj7/A]breath, it's all you [Am]can
[Am7]rambling years of lousy luck
[Am6]miss the smell of burning turf
[Fmaj7/A]dream, it's all you [Am]can
but d[C]on't, don't sink the b[G]oat
that you b[Dm]uilt, you built to keep af[Am]loat.
no d[C]on't, don't sink the b[G]oat
that you b[Dm]uilt...
interlude x2
 
 e|-------------------------------------------------------|
 B|--5-5--6-5h6p5----------5-5--6-5h6p5-------------------|
 G|---------------7-5-------------------7-5---------------|
 D|-------------------7---------------------7-------------|
 A|-------------------------------------------------------|
 E|-------------------------------------------------------|
 e|-------------------------------------------------------|
 B|--5-5--6-5h6p5-----------------------------------------|
 G|---------------7-5-4----4-5-7--------------------------|
 D|----------------------7--------------------------------|
 A|-------------------------------------------------------|
 E|-------------------------------------------------------|

[Am7]singled out for who you are
[Am6]takes all types to be a man
[Fmaj7/A]feel, it's all you [Am]can
[Am7]filthy suits with bigot ears
[Am6]hide behind their own worst fears
[Fmaj7/A]live, it's all you [Am]can
i[F]t's all you [Am]can
[F]it's all you c[C]an...d[Am]o.
interlude x2
 
 e|-------------------------------------------------------|
 B|--5-5--6-5h6p5----------5-5--6-5h6p5-------------------|
 G|---------------7-5-------------------7-5---------------|
 D|-------------------7---------------------7-------------|
 A|-------------------------------------------------------|
 E|-------------------------------------------------------|
 e|-------------------------------------------------------|
 B|--5-5--6-5h6p5-----------------------------------------|
 G|---------------7-5-4----4-5-7--------------------------|
 D|----------------------7--------------------------------|
 A|-------------------------------------------------------|
 E|-------------------------------------------------------|

[Am7]no matter where i put my head
[Am6]i wake up feeling sound again
[Fmaj7/A]breath, it's all you [Am]can
[Am7]tomorrow smells of less decay
[Am6]beats the bows that bloom the fray
[Fmaj7/A]be thankful, it's all you [Am]can
but d[C]on't, don't sink the b[G]oat
that you b[Dm]uilt, you built to keep af[Am]loat.
but d[C]on't, don't sink the b[G]oat
that you b[Dm]uilt, you built to keep af[Am]loat.
but d[C]on't, don't sink the b[G]oat
that you b[Dm]uilt, you built to keep af[Am]loat.
no d[C]on't, no don't sink the b[G]oat
that you b[Dm]uilt
we all built to keep af[Am]loat
instrumental interlude to end
over Am chord
 
 e|-------------------------------------------------------|
 B|--5-5--6-5h6p5----------5-5--6-5h6p5-------------------|
 G|---------------7-5-------------------7-5---------------|
 D|-------------------7---------------------7-------------|
 A|-------------------------------------------------------|
 E|-------------------------------------------------------|
 e|-------------------------------------------------------|
 B|--5-5--6-5h6p5-----------------------------------------|
 G|---------------7-5-4----4-5-7--------------------------|
 D|----------------------7--------------------------------|
 A|-------------------------------------------------------|
 E|-------------------------------------------------------|

it's a ripe old age
it's a ripe old age
it's a ripe old age
that's what i am
a ripe old age
a ripe old age
a ripe old age
that‚??s what i am
***
And for any mandolin or violin players,
the interlude is as follows:
 
 e|--0-0-1-0h1p0----------0-0-1-0h1p0---------------------|
 A|--------------5-3-0----------------5-3-0---------------|
 D|-------------------------------------------------------|
 G|-------------------------------------------------------|
 e|--0-0-1-0h1p0------------------------------------------|
 A|--------------5-3-2---0-2-3-5--------------------------|
 D|-------------------------------------------------------|
 G|-------------------------------------------------------|


Important: The song above is NOT stored on the Chordie server. The original song is hosted at www.azchords.com. Chordie works as a search engine and provides on-the-fly formatting. Chordie does not index songs against artists'/composers' will. To remove this song please click here.

Text color:
Chord color:
Chord grids: 
Font size:    
Page size: 

Am Am6 Am7 C Dm F Fmaj7/A G
Rate #1 of 5 versions

Jango Player

Login - add to songbook

SHARE PAGE  




You need to log in to post comments