Guitar Tabs, Chords and Lyrics
Server problems seems to be fixed. Chordie has been experiencing problems with songs disappearing. These issues now seems to be fixed, but still verifying the fix. If you find anything strange, please email admin@chordie.com.


Screaming at the Wailing Wall  Flogging Molly

Verse:
So G[G]od how come every wro[C]ng's been d[G]one?
Wi[G]th deals no Christ should al[Em]low
Once the co[G]mmunist now the t[C]erroist
With bl[F]ood as th[C]ick as y[G]ours
Now a ca[D]ravan of clouds
Warns us a[C]ll of winter sh[D]owers
Then rat[C]tle comes the rain
With each b[C]ullet screams your na[D]me
Chorus:
So h[G]ow come this ga[D]therin' storm
Pours li[C]ttle on the tr[D]uth?
Where the sm[G]okin' gun's a fam[D]iliar
song let l[C]oose
With the b[G]ombed out cars
Come the fa[D]lling stars
[C] [D]  
And the n[G]ameless names
On the mi[D]sspelled graves grow ta[C]ll
We're still screamin' at the W[D]ailing W[G]all
Rest of the lyrics:
I'll liberate your peoples' fate
Spoke the Burnin' Bush
But the song of beasts
Grow with oil soaked teeth
Their dollor is mighty and true
Now the eagle soares the sky
Over refugee and child
And to all there is no end
Another day in perfect Hell
So how come where the smokin' gun's a familiar
song let loose
Oh Hell
Now a caravan of clouds
Warns us of deadly showers
Then a rattle comes the rain
With each bullet screams your name
So how come this gatherin' storm
Pours little on the truth?
Where the smokin' gun's a familiar
song let loose
With the bombed out cars
Come the falling stars
And the nameless names
On the misspelled graves grow tall
We're still screamin' at the Wailing Wall
Oh I'll [G]liberate your pe[C]oples' f[G]ate
As we scream at the w[D]ailing wa[G]ll
Melody:
No.1 F C G
 
 e:----------------------------|-----------0-2-3-2-0--0-1-1-0-------|
 b:--3-3-3-0-3-5-5-3--3-0------|-0-3-3-3-3--------------------3-1-3-|
 g:0----------------------2-0--|------------------------------------|
 d:---------------------------2|------------------------------------|
 a:----------------------------|------------------------------------|
 e:----------------------------|------------------------------------|
 e:-2---0-0-0-2-3-2-0-3-7-5-3-5---0-3-3-3-2-0-0-|
 b:---3-----------------------------------------|
 g:---------------------------------------------|
 d:---------------------------------------------|
 a:---------------------------------------------|
 e:---------------------------------------------|

Chorus:
then(not to sure about this part):
 
 e:-----3-3-2-0--------------0-------3-2-0---0 \ ----------0----------|
 b:---3----------3-3-5-3-1-1---3---3-------3-- | --------3---3-3------|
 g:-0----------------------------0------------ |--\ 2x ------0----------2-0-|
 d:------------------------------------------- |--/ ---------------------|
 a:------------------------------------------- | ---------------------|
 e:------------------------------------------- / ---------------------|

that´s all

Important: The song above is NOT stored on the Chordie server. The original song is hosted at www.azchords.com. Chordie works as a search engine and provides on-the-fly formatting. Chordie does not index songs against artists'/composers' will. To remove this song please click here.

Text color:
Chord color:
Chord grids: 
Font size:    
Page size: 

C D Em F G
Rate #1 of 3 versions

Login - add to songbook

SHARE PAGE  




You need to log in to post comments