Guitar Tabs, Chords and Lyrics
Server problems seems to be fixed. Chordie has been experiencing problems with songs disappearing. These issues now seems to be fixed, but still verifying the fix. If you find anything strange, please email admin@chordie.com.


Tiny Town  Fokofpolisiekar

Band: Fokofpolisiekar
Hey, sorry maar die tab is net beskikbaar in afrikaans, aangesien dit 'n
afrikaanse liedjie is.
Ek het dit so naby as moontlik probeer tab maar ek weet dis nie oral reg
nie. Ek het die ritme ook
probeer tab, so kyk maar of jy dit beter kan uitfigure. E-mail my as jy weet
waar ek kan verbeter.
Ek hoop ek kon help en geniet die liedjie. Fokofpolisiekar is koning!
-Intro & Verse
Speel die intro eenkeer deur voor die woorde begin. Kyk net mooi waar jy
begin sing want B5
begin eers by "woede".
(In wrede woede...)
[B5] [Bm] [B7] [D6] [Esus4] [Em] 
[G5]  
 
 e|-----------------------|-----------------------|-----------------------|------------------------|
 B|---0---0---3---3-3-3---|---0---0---3---3-3-----|-----------------------|------------------------|
 G|---4---4---4---4-4-4---|---4---4---4---4-4-2---|-----------------------|------------------------|
 D|---4---4---4---4-4-4---|---4---4---4---4-4-2---|---2---2---2---2-2-2---|---5---5---5---5-5-5----|
 A|---2---2---2---2-2-2---|---0---0---0---0-0-0---|---2---2---2---2-2-2---|---5---5---5---5-5-5----|
 E|-----------------------|-----------------------|---0---0---0---0-0-0---|---3---3---3---3-3-3----|

^ ^ v v ^ v ^ ^ v v ^ v ^ ^ v v ^ v ^
^ v v ^ v
[Esus4] [Gm6] [G5]  
 
 e|-----------------------|-----------------------|-----------------------|------------------------||
 B|-----------------------|-----------------------|-----------------------|------------------------||
 G|---2---2---2---2-2-2---|---0---0---0---0-0-0---|-----------------------|------------------------||
 D|---2---2---2---2-2-2---|---2---2---2---2-2-2---|---5---5---5---5-5-----|---5---5-5---5---5-5-5--||
 A|---0---0---0---0-0-0---|---1---1---1---1-1-1---|---5---5---5---5-5-----|---5---5-5---5---5-5-5--||
 E|-----------------------|-----------------------|---3---3---3---3-3-----|---3---3-3---3---3-3-3--||

^ ^ v v ^ v ^ ^ v v ^ v ^ ^ v v ^ v
v ^ v v ^ v
-let op ander ritme
(Te veel verskeur...)
[B5] [Esus4] [G5]  
 
 e|-----------------------|-----------------------|-----------------------|------------------------||
 B|---0---0---0---0-0-0
 --|-----------------------|-----------------------|------------------------||
 G|---4---4---4---4-4-4---|---2---2---2---2-2-2---|-----------------------|------------------------||
 D|---4---4---4---4-4-4---|---2---2---2---2-2-2---|---5---5---5---5-5-----|---5---5-5---5---5-5-5--||
 A|---2---2---2---2-2-2---|---0---0---0---0-0-0---|---5---5---5---5-5-----|---5---5-5---5---5-5-5--||
 E|-----------------------|-----------------------|---3---3---3---3-3-----|---3---3-3---3---3-3-3--||

^ ^ v v ^ v ^ ^ v v ^ v ^ ^ v v ^
v v ^ v v ^ v
-Chorus
(Miskien is niks...)
[Asus4] [Esus4] [B5] [G5]  
 
 e|-----------------------|-----------------------|-----------------------|------------------------|
 B|-----------------------|-----------------------|---0---0---0---0-0-0---|------------------------|
 G|---7---7---7---7-7-7---|---2---2---2---2-2-2---|---4---4---4---4-4-4---|------------------------|
 D|---7---7---7---7-7-7---|---2---2---2---2-2-2---|---4---4---4---4-4-4---|---5---5---5---5-5-5----|
 A|---5---5---5---5-5-5---|---0---0---0---0-0-0---|---2---2---2---2-2-2---|---5---5---5---5-5-5----|
 E|-----------------------|-----------------------|-----------------------|---3---3---3---3-3-3----|

^ ^ v v ^ v ^ ^ v v ^ v ^ ^ v v ^ v ^
^ v v ^ v
(My greep op my...)
[B5] [G5] [Gm6]  
 
 e|-----------------------|-----------------------|-----------------------|------------------------||
 B|---0---0---0---0-0-0
 --|-----------------------|-----------------------|------------------------||
 G|---4---4---4---4-4-4---|-----------------------|---0---0---0---0-0-----|---0---0-0---0---0-0-0--||
 D|---4---4---4---4-4-4---|---5---5---5---5-5-5---|---2---2---2---2-2-----|---2---2-2---2---2-2-2--||
 A|---2---2---2---2-2-2---|---5---5---5---5-5-5---|---1---1---1---1-1-----|---1---1-1---1---1-1-1--||
 E|-----------------------|---3---3---3---3-3-3---|-----------------------|------------------------||

^ ^ v v ^ v ^ ^ v v ^ v ^ ^ v v ^
v v ^ v v ^ v
(My wonde wonder...)
[Asus4] [Esus4] [B5] [G5]  
 
 e|-----------------------|-----------------------|-----------------------|------------------------|
 B|-----------------------|-----------------------|---0---0---0---0-0-0---|------------------------|
 G|---7---7---7---7-7-7---|---2---2---2---2-2-2---|---4---4---4---4-4-4---|------------------------|
 D|---7---7---7---7-7-7---|---2---2---2---2-2-2---|---4---4---4---4-4-4---|---5---5---5---5-5-5----|
 A|---5---5---5---5-5-5---|---0---0---0---0-0-0---|---2---2---2---2-2-2---|---5---5---5---5-5-5----|
 E|-----------------------|-----------------------|-----------------------|---3---3---3---3-3-3----|

^ ^ v v ^ v ^ ^ v v ^ v ^ ^ v v ^ v ^
^ v v ^ v
(Soet slaap...)
[B5] [G5]  
 
 e|-----------------------|-----------------------||
 B|---0---0---0---0-0-0 --|-----------------------||
 G|---4---4---4---4-4-4---|-----------------------|| x3
 D|---4---4---4---4-4-4---|---5---5---5---5-5-5---||
 A|---2---2---2---2-2-2---|---5---5---5---5-5-5---||
 E|-----------------------|---3---3---3---3-3-3---||

^ ^ v v ^ v ^ ^ v v ^ v
-Speel nou weer die intro en herhaal die chorus se chords. Eindig dan op
Asus4.
-Hier het ek die lyrics met die plekke waar jy min of meer die chords ruil.
Kyk hoe hulle lyk hierbo.
[G5]In wrede [B5]woede het ek [Bm]die hand wat be[B7]heer ge[D6]byt
Verwyt my[Em]self op harder en harder grond [G5]neer gesmyt
Dis nou [Esus4]ek wat die [Gm6]leiband [G5]lei
Te [B5]veel verskeur om sulke [Esus4]argumente ernstig [G5]op te neem
Mi[Asus4]skien is [Esus4]niks soos wat [B5]ek dink dit [G5]is nie
My [B4]greep op my ge[G5]loof glip ge[Esus4]reeld
My [Asus4]wonde wonder [Esus4]waar ge[B5]nesing kom van[G5]daan
[Esus4]Soet slaap sonder [G5]sonde va[B5]naand x3
[G5] [B5] [Bm] [B7] [D6] [Em] [G5] [Esus4] [Gm6] [G5]  
Mi[Asus4]skien is [Esus4]niks soos wat [B5]jy dink dit [G5]is nie
Jou [B4]greep op jou ge[G5]loof glip ge[Esus4]reeld
Jou [Asus4]wonde wonder [Esus4]waar ge[B5]nesing kom van[G5]daan
[Esus4]Soet slaap sonder [G5]sonde va[Asus4]naand
 
 ---------------------------

This file passed through:
Absolute Tabs
 
 ---------------------------


Important: The song above is NOT stored on the Chordie server. The original song is hosted at www.azchords.com. Chordie works as a search engine and provides on-the-fly formatting. Chordie does not index songs against artists'/composers' will. To remove this song please click here.

Text color:
Chord color:
Chord grids: 
Font size:    
Page size: 

Asus4 B4 B5 B7 Bm D6 Em Esus4 G5 Gm6
Rate #1 of 4 versions

Jango Player

Login - add to songbook

SHARE PAGE  



You need to log in to post comments