Guitar Tabs, Chords and Lyrics
Server problems seems to be fixed. Chordie has been experiencing problems with songs disappearing. These issues now seems to be fixed, but still verifying the fix. If you find anything strange, please email admin@chordie.com.


Double Vision  Foreigner

Intro:
 
 e|-12\4----------------12\4-----------------12\4---------------12\4-------|
 B|-12\4----------------12\4-----------------12\4---------------12\4-------|
 G|-12\4-5--5--5/7\5----12\4-5--5--5/7-7\5---12\4-5--5--5/7\5---12\4-5--5-7|
 D|------5--5--5/7\5---------5--5--5/7-7\5--------5--5--5/7\5--------5--5-7|
 A|------3--3--3/5\3---------3--3--3/5-5\3--------3--3--3/5\3--------3--3-5|
 E|------------------------------------------------------------------------| 

Verse:
 
 e|---------------------------------------------------| e|-----------------
 B|---------------------------------------------------| B|-----------------
 G|---2-2---2-------------------------2-2---2---------| G|-----7--5--------
 D|---2-2---2-------------------------2-2---2---------| D|--7--7--5--5-----
 A|-0-0-0-0-0-0-0-0-0-0-0-0-0-0-0-0-0-0-0-0-0-0-0-0---| A|--7--5--3--5-----
 E|---------------------------------------------------| E|--5--------3-----
 e|---------------------------------------------------| e|-----------------
 B|---------------------------------------------------| B|-----------------
 G|---2-2---2-------------------------2-2---2---------| G|----5--4---------
 D|---2-2---2-------------------------2-2---2---------| D|-3--5--4--5------
 A|-0-0-0-0-0-0-0-0-0-0-0-0-0-0-0-0-0-0-0-0-0-0-0-0---| A|-3--3--2--5------
 E|---------------------------------------------------| E|-1--------3------

Verse 1:
[A]Feelin? down and dirty feelin? kind of mea[A]n[D] [C] [G] [A]
[A]I?ve been from one to another extreme[F] [C] [B] [G] [A]
[A]It?s time I had a good time ain?t got time to wai[A]t[D] [C] [G] [A]
[A]I want to stick around ?til I can?t see straight[F] [C] [B] [G] [A] [A] [A] [A] [A]
Chorus:
 
 e|-13----------13---------------| e|-12----------12---------------|
 B|----13----13----13----13------| B|----13----13----13----13------|
 G|-------14----------14---------| G|-------14----------14---------|
 D|------------------------------| D|------------------------------|
 A|------------------------------| A|------------------------------|
 E|------------------------------| E|------------------------------|

[Dm]Fill my eyes with that double [Am]vision
[Dm]No disguise for that double [Am]vision
[F]Ooooh [C]when it gets [Dm]through to me
[C]It?s always [Dm]new to me
C D C E Eb D C (Intro X2)
My double vision gets the best of me
Verse2:
[A]Never do more than I I really need[A] [D] [C] [G] [A]
[A]My mind is racing but my body?s in the lead[F] [C] [B] [G] [A]
[A]Tonight?s the night I?m gonna push it to the limi[A]t[D] [C] [G] [A]
[A]I?ll live all of my years in a single minute[F] [C] [B] [G] [A]
Chorus2:
[Dm]Fill my eyes with that double [Am]vision
[Dm]No disguise for that double [Am]vision
[F]Ooooh [C]when it gets [Dm]through to me
[C]It?s always [Dm]new to me
C D C E Eb D C E Eb D C (IntroX4)
My double vision always seems to get the best of me
The best of me Yeaaaahhhh
[A] [C] [A] [E] [Eb] [D] [C]  
Outro:
[Dm]Oooooooohh Double [Am]vision
[Dm]Need Double [Am]vision
[Dm]It takes me out of my [Am]head
[Am]Takin? me out of my [Dm]head
[Dm]I get my double [Am]vision[A] [A] [B] [B] [C] [C] [E]
[Dm]Oh oh seeing double double[Am]
[Dm]Oh got my double vi[Am]sion
[Dm]Yeahhh I get double [Am]vision

Important: The song above is NOT stored on the Chordie server. The original song is hosted at www.azchords.com. Chordie works as a search engine and provides on-the-fly formatting. Chordie does not index songs against artists'/composers' will. To remove this song please click here.

Text color:
Chord color:
Chord grids: 
Font size:    
Page size: 

A Am B C D Dm E Eb F G
Rate #1 of 2 versions

Jango Player

Login - add to songbook

SHARE PAGE  



You need to log in to post comments