Guitar Tabs, Chords and Lyrics
Server problems seems to be fixed. Chordie has been experiencing problems with songs disappearing. These issues now seems to be fixed, but still verifying the fix. If you find anything strange, please email admin@chordie.com.


Agape   For Today

 
 ----------------------------------------------------------------------------
 ----------------------------------------------------------------------------

 


 


 Here it is...


 


 

 
 D|---------------------------13h17p13-----------------------------|
 A|-------------------------15--------15---------------------------|
 F|-----------------------14------------14-------------------------|
 C|---------------------15----------------15~----------------------|
 G|-0-0000-0000-0-----17-------------------------------------------|
 C|-0-0000-0000-0--------------------------------------------------|

 


 . .... .... .


 


 

 
 D|----------10h13p10-------12h15p12-----9h12p9-----------------|
 A|--------11--------11-------------14---------11---------------|
 F|------10------------10-------------15---------12-------------|
 C|----12-------------------------------------------------------|
 G|--13---------------------------------------------------------|
 C|-------------------------------------------------------------|
 D|---------------------|
 A|---------------------|
 F|---------------------|
 C|--15-17-19-----------|
 G|-----------19-17-16--|
 C|---------------------|
 D|-------------------------------------------6h-9p6--------------|
 A|-----------------------------------8-6-5-6--------8-6---5~-6\--|
 F|--------------6-7-9-7-6-7-10-9-7-9-----------------------------|
 C|--------5-7-8--------------------------------------------------|
 G|--5-7-8--------------------------------------------------------|
 C|---------------------------------------------------------------|
 D|----------13h17p13----------------|
 A|--------15--------15--------------|
 F|------14------------14------------|
 C|----15----------------15~---------|
 G|--17------------------------------|
 C|----------------------------------|
 D|----------10h13p10-------12h15p12-----9h12p9-----------------|
 A|--------11--------11-------------14---------11---------------|
 F|------10------------10-------------15---------12-------------|
 C|----12-------------------------------------------------------|
 G|--13---------------------------------------------------------|
 C|-------------------------------------------------------------|
 D|-------------------|
 A|-------------------|
 F|--------19-18~-----|
 C|--15-17------------|
 G|-------------------|
 C|-------------------|
 D|-------------------------------------------6h-9p6------------|
 A|-----------------------------------8-6-5-6--------8-6--------|
 F|--------------6-7-9-7-6-7-10-9-7-9--------------------7------|
 C|--------5-7-8------------------------------------------------|
 G|--5-7-8------------------------------------------------------|
 C|-------------------------------------------------------------|
 D|--------------------------------------------------------\
 A|-------------------------------------------------------- \
 F|-------------------------------------------------------- x2
 C|-------------------------------------------------------- /
 G|-0000-000---0000-00000000---0000-000-0---0000-00000000-- /
 C|-0000-000---0000-00000000---0000-000-0---0000-00000000--/

 


 .... ... .... ........ .... ... . .... ........


 


 

 
 D|------13h17-----13h17-------13h17----------13h17p13---------\
 A|----15--------15----------15-------------15--------15------- \
 F|--14--------14----------14-------------14------------14----- \
 C|-------------------------------------15--------------------- \
 G|-----------------------------------17----------------------- \
 C|------------------------------------------------------------ | 

 


 |


 

 
 D|------13h17-----13h17---------13h17----------13h17p13--------- x3
 A|----15--------15------15----15-------------15--------15------- |
 F|--14--------14------------14-------------14------------14----- |
 C|---------------------------------------15--------------------- /
 G|-------------------------------------17----------------------- /
 C|--------------------------------------------------------------/
 D|--------------------------------------------|
 A|--------------------------------------------|
 F|------------------12-14-15--------15-17-19--|
 C|-0~---0~------------------------------------|
 G|-0~---0~----13-17-----------16-20-----------|
 C|-0~---0~------------------------------------|
 D|---------------------------------------------- \
 A|---------------------------------------------- \
 F|---------------------------------------------- \
 C|-0~---13-12-------8-7-5-------------------5--- \
 G|-0~-0-------5-6-8--------00-0-000-0-000-5----- \
 C|-0~-0---0--0-0-0-0-0-----00-0-000-0-000------- \ 

 


 . . . . . . . .. ... ... \


 |


 

 
 D|--------------------------------------------------- |
 A|--------------------------------------------------- |
 F|------------------9-7-6---------------------------- |
 C|-0~---13-12------------------------12----12---12--- |
 G|-0~-0-------5-6-8---------00-0-000-10-00-10-0-10--- |
 C|-0~-0---0--0-0-0-0-0------00-0-000----00----0------ |

 


 . . . . . . . .. ... .. . x2


 |


 

 
 D|-------------------------------------------------- |
 A|-------------------------------------------------- |
 F|-------------------------------------------------- |
 C|-0~---13-12-------8-7-5--------------------5------ |
 G|-0~-0-------5-6-8---------00-0-000-0-000-5-------- |
 C|-0~-0---0--0-0-0-0-0------00-0-000-0-000---------- /

 


 . . . . . . . .. ... ... /


 [/]  

 
 D|--------------------------------------------- /
 A|--------------------------------------------- /
 F|--------------12-14-15-------15-17-19-------- /
 C|--------------------------------------------- /
 G|--------13-17-----------16-20----------------/
 C|--------------------------------------------/
 D|--------------------------------------------------|
 A|--------------------------------------------------|
 F|--------------------------------------------------|
 C|-0~---13-12-------8-7-5--------------------5------|
 G|-0~-0-------5-6-8---------00-0-000-0-000-5--------|
 C|-0~-0---0--0-0-0-0-0------00-0-000-0-000----------|

 


 . . . . . . . .. ... ...


 


 

 
 D|--------------------------------------------|
 A|--------------------------------------------|
 F|--------------12-14-15--------15-17-19------|
 C|--------------------------------------------|
 G|--------13-17-----------16-20---------------|
 C|--------------------------------------------|
 D|--------------------------------------------------------|
 A|--------------------------------------------------------|
 F|----------12-----------(12 and 11 not 1 and 2)----------|
 C|-12-14-15----15-14-12------12121211---------------------|
 G|--------------------------------------------------------|
 C|--------------------------------------------------------|
 D|-------------------------------------------------------\
 A|------------------------------------------------------- \
 F|------------------------------------------------------ x10
 C|---7'-8'-11'---11'-12'-14'---12'-14'-15'-14'-12'-11'--- /
 G|-8'---------12'-----------13'-------------------------- /
 C|-------------------------------------------------------/
 D|----------------------------------------\
 A|---------------------------------------- \
 F|---------------------------------------- \
 C|------------------------7-3-2-7-3-2----- \
 G|-000-000-000000--000-0--7-3-2-7-3-2----- |
 C|-000-000-000000--000-0--7-3-2-7-3-2----- |

 


 ... ... ...... ... . |


 |


 

 
 D|------------------------------ x3
 A|------------------------------ /
 F|------------------------------ /
 C|------------------------------ /
 G|-000000--000-0--0-0-0-0-0-0--- /
 C|-000000--000-0--0-0-0-0-0-0--- /

 


 ...... ... . . . . . . . /


 [/]  

 
 D|------------------------------ /
 A|------------------------------ /
 F|------------------------------ /
 C|----------------7-3-2-7-3-2--- /
 G|-000000--000-0--7-3-2-7-3-2--- /
 C|-000000--000-0--7-3-2-7-3-2---/

 


 ...... ... .


 


 

 
 D|------------------------|
 A|------------------------|
 F|------------------------|
 C|------------------------|
 G|-1~-----3------------0--|
 C|-----5-----7--4~~~~~-0--|

 


 .


 

 
 D|-------------------------------------------------------\
 A|------------------------------------------------------- \
 F|------------------------------------------------------- \
 C|------------------------------------------------------- \
 G|-0-0-0-0-000-000-0~-000-000-0-0~-000-000-0-0~-000-000-- \
 C|-0-0-0-0-000-000-0~-000-000-0-0~-000-000-0-0~-000-000-- \

 


 . . . . ... ... . ... ... . . ... ... . . ... ... \


 x2


 

 
 D|------------------------------------------------------- /
 A|------------------------------------------------------- /
 F|------------------------------------------------------- /
 C|------------------------------------------------------- /
 G|-0-0-0-0-000-000-0~-000-000-0-0--000-000-0-0--000-000-- /
 C|-0-0-0-0-000-000-0~-000-000-0-0--000-000-0-0--000-000--/ 

 


 . . . . ... ... . ... ... . . ... ... . . ... ...


 


 

 
 D|---------------------|
 A|---------------------|
 F|---------------------|
 C|---------------------|
 G|-0-0-0-0-000-000-0---|
 C|-0-0-0-0-000-000-0---|


Important: The song above is NOT stored on the Chordie server. The original song is hosted at www.azchords.com. Chordie works as a search engine and provides on-the-fly formatting. Chordie does not index songs against artists'/composers' will. To remove this song please click here.

This song is displayed as text-only. Transposing and tuning is only available for chordpro-songs.
Rate #1 of 1 versions

Jango Player

Login - add to songbook

SHARE PAGE  



You need to log in to post comments