Guitar Tabs, Chords and Lyrics
Server problems seems to be fixed. Chordie has been experiencing problems with songs disappearing. These issues now seems to be fixed, but still verifying the fix. If you find anything strange, please email admin@chordie.com.


Broken Lens   For Today

 
 - -----------------------------------------------10-10-----11-11-------
 - -------4---4-------------4-------------4---4---x--x------x--x--------
 - -------7---7-----------7----7----------7---7---7--7------8--8--------
 - -1-0---0---0---------------------1-0---0---0-------------------------
 - -1-0---6---6---00---6----------6-1-0---6---6---------0-0-------0-0-0-
 - -1-0-----------000---------------1-0-----------------0-0-------0-0-0-

 


 PM .. ... .....


 


 

 
 - -----------------------------------------------5---5---6-6-6-6---
 - -------4---4-------------4-------------4---4---x---x---x-x-x-x---
 - -------7---7-----------7----7----------7---7---3---3---3-3-3-3---
 - -1-0---0---0---------------------1-0---0---0---0---0---0-0-0-0---
 - -1-0---6---6---00---6----------6-1-0---6---6-00------0---------0-
 - -1-0-----------000---------------1-0---------00------0---------0-

 


 PM .. .. . .


 


 

 
 - -----------------------------------------------10-10-----11-11-------
 - -------4---4-------------4-------------4---4---x--x------x--x--------
 - -------7---7-----------7----7----------7---7---7--7------8--8--------
 - -1-0---0---0---------------------1-0---0---0-------------------------
 - -1-0---6---6---00---6----------6-1-0---6---6---------0-0-------0-0-0-
 - -1-0-----------000---------------1-0-----------------0-0-------0-0-0-

 


 PM .. ... .....


 


 

 
 - -----------------------------------------------5---5-------------
 - -------4---4-------------4-------------4-------x---x-------------
 - -------7---7-----------7----7----------7-------3---3---8-8-8-8-8-
 - -1-0---0---0---------------------1-0---0-------0---0---x-x-x-x-x-
 - -1-0---6---6---00---6----------6-1-0---6---0---------0-6-6-6-6-6-
 - -1-0-----------000---------------1-0-------0---------0-----------

 


 PM .. . .


 


 [Riff 2] - [00:25] - [00:31]


 

 
 - -----------------------------------------------------------------
 - -----------------------------------------------------------------
 - -----------------------------------------------------------------
 - -0-----0-----7-------------------0-----0-----7-------------8--\1-
 - -6-66666-6666x-------------------6-66666-6666x-------------8--\1-
 - -0-00000-00008-------------------0-00000-00008-------------8--\1-

 


 PM .... .... .... ....


 


 [Riff 3a] - [00:31] - [00:57]


 

 
 - -----------------------------------------------------------------
 - -----------------------------------------------------------------
 - -----------------------------------------------------------------
 - -0-0---0---0---0-0-0---0---0---0-1-1---1---1---1-1-1---1---1---1-
 - -0-0---0---0---0-0-0---0---0---0-0-0---0---0---0-0-0---0---0---0-
 - -0-0---0---0---0-0-0---0---0---0-1-1---1---1---1-1-1---1---1---1-
 - -----------------------------------------------------------------
 - -----------------------------------------------------------------
 - -----------------------------------------------------------------
 - -0-0---0---0---0-0-0---0---0---0-5-5---5---5---5-5-8---8---8--\1-
 - -0-0---0---0---0-0-0---0---0---0-5-5---5---5---5-5-8---8---8--\1-
 - -0-0---0---0---0-0-0---0---0---0-5-5---5---5---5-5-8---8---8--\1-
 - -----------------------------------------------------------------
 - -----------------------------------------------------------------
 - -----------------------------------------------------------------
 - -0-0---0---0---0-0-0---0---0---0-1-1---1---1---1-1-1---1---1---1-
 - -0-0---0---0---0-0-0---0---0---0-0-0---0---0---0-0-0---0---0---0-
 - -0-0---0---0---0-0-0---0---0---0-1-1---1---1---1-1-1---1---1---1-
 - ---------------------------------------------------------------------------------
 - ---------------------------------------------------------------------------------
 - ---------------------------------------------------------------------------------
 - -0-0---0---0---0-0-0---0---0---0-5-5---5---5---5-5-8---8---8--\1-----------1-4-1-
 - -0-0---0---0---0-0-0---0---0---0-5-5---5---5---5-5-8---8---8--\1-----------1-4-1-
 - -0-0---0---0---0-0-0---0---0---0-5-5---5---5---5-5-8---8---8--\1-----------1-4-1-

 


 


 [Riff 3b] - [00:30] - [00:56]


 

 
 - ----------------------------------------------------------------------------------------
 - ----------------------------------------------------------------------------------------
 - ---------------15-15\14--14--14--14-14\10--10--10--10-10\7---7---7---7-7-7---7--/15--15-
 - -\\\-----------x--x--x---x---x---x--x--x---x---x---x--x--x---x---x---x-x-x---x---x---x--
 - -\\\-----------13-13\12--12--12--12-12\8---8---8---8--8-\5---5---5---5-5-5---5--/13--13-
 - -\\\------------------------------------------------------------------------------------
 - -------------------------------------------------------------------------
 - -------------------------------------------------------------------------
 - -15\14--14--14--12/15\14--14--14--14-14/15--15--15--15-15/19--19--19--19-
 - -x--x---x---x---x--x--x---x---x---x--x--x---x---x---x--x--x---x---x---x--
 - -13\12--12--12--10/13\12--12--12--12-12/13--13--13--13-13/17--17--17--17-
 - -------------------------------------------------------------------------
 - -----------------------------------------------------------------------
 - -----------------------------------------------------------------------
 - -15\14--14--14--14-14\10--10--10--10-10\7---7---7---7-7-7---7--/15--15-
 - -x--x---x---x---x--x--x---x---x---x--x--x---x---x---x-x-x---x---x---x--
 - -13\12--12--12--12-12\8---8---8---8--8-\5---5---5---5-5-5---5--/13--13-
 - -----------------------------------------------------------------------
 - -------------------------------------------------------------------------
 - -------------------------------------------------------------------------
 - -15\14--14--14--12/15\14--14--14--14-14/15--15--15--15-15/19--19--19--19-
 - -x--x---x---x---x--x--x---x---x---x--x--x---x---x---x--x--x---x---x---x--
 - -13\12--12--12--10/13\12--12--12--12-12/13--13--13--13-13/17--17--17--17-
 - -------------------------------------------------------------------------

 


 


 [Riff 4] - [00:57] - [01:10]


 

 
 - -----------------------------------------------------------------
 - -----------------------------------------------------------------
 - -----------------------------------------------------------0-0-0-
 - -----------------------------------------------------------0-0-0-
 - -0---0-0---0---0-0---0---0-0---0---0---0-0---0---0-0-0-0-0-6-6-6-
 - -0---0-0---0---0-0---0---0-0---0---0---0-0---0---0-0-0-0-0-------

 


 PM .........................................................


 


 

 
 - --------------------------------------------------------------------
 - -----------------------------------------------------------11-11-11-
 - -----------------------------------------------------------14-14-14-
 - --------------------------------------------------------------------
 - -0-0---0---0-0---0---0-0---0---0---0-0-0---0---0-0-0-0-0-0----------
 - -0-0---0---0-0---0---0-0---0---0---0-0-0---0---0-0-0-0-0-0----------

 


 PM .........................................................


 


 [Riff 5, Guitar 1 & 2] - [01:10] - [01:22]


 

 
 - ---------------------------------------------------------------------------
 - ---11-----11---11-----11---11-----11---11---11-----11---11-----------------
 - ---14-----14---14-----14---14-----14---14---14-----14---14---0-0-----------
 - -------------------------------------------------------------0-0-----1-4-1-
 - -0----0-0----0----0-0----0----0-0----0----0----0-0----0----0-6-6-0-0-1-4-1-
 - -0----0-0----0----0-0----0----0-0----0----0----0-0----0----0-----0-0-1-4-1-

 


 PM . ... . ... . ... . . ... . . ...


 

 
 - ---------------------------------------------------------------------------
 - ---8------8----8------8----8------8----8----8------8----8------------------
 - ---11-----11---11-----11---11-----11---11---11-----11---11---0-0-----------
 - -------------------------------------------------------------0-0-----1-4-1-
 - -0----0-0----0----0-0----0----0-0----0----0----0-0----0----0-6-6-0-0-1-4-1-
 - -0----0-0----0----0-0----0----0-0----0----0----0-0----0----0-----0-0-1-4-1-

 


 PM . ... . ... . ... . . ... . . ...


 


 

 
 - -----------------------------------------------------------------------------
 - -----11---11-----11---11-----11---11---11-------11---11-------------11-11-11-
 - -----14---14-----14---14-----14---14---14-------14---14-------------14-14-14-
 - -----------------------------------------------------------------------------
 - -0-0----0----0-0----0----0-0----0----0----0-0-0----0----0-0-0-0-0-0----------
 - -0-0----0----0-0----0----0-0----0----0----0-0-0----0----0-0-0-0-0-0----------

 


 PM ... . ... . ... . . ..... . ...........


 

 
 - -----------------------------------------------------------------------------
 - -----8----8------8----8------8----8----8--------8----8--------------8--8--8--
 - -----11---11-----11---11-----11---11---11-------11---11-------------11-11-11-
 - -----------------------------------------------------------------------------
 - -0-0----0----0-0----0----0-0----0----0----0-0-0----0----0-0-0-0-0-0----------
 - -0-0----0----0-0----0----0-0----0----0----0-0-0----0----0-0-0-0-0-0----------

 


 PM ... . ... . ... . . ..... . ...........


 


 [Riff 6, Guitar 1 & 2] - [01:22] - [01:47]


 

 
 - ---------------------------------------------------------------------
 - ---------------------------------------------------------------------
 - ---------------------------------------------------------------------
 - -1-0-----------------------------------------------------------------
 - -1-0-----------------------------------------------------------------
 - -1-0-----------------------------------------------------------------

 


 [-]  

 
 - -----------------------------------------------10-10-----11-11-------
 - -------4---4-------------4-------------4---4---x--x------x--x--------
 - -------7---7-----------7----7----------7---7---7--7------8--8--------
 - -1-0---0---0---------------------1-0---0---0-------------------------
 - -1-0---6---6---00---6----------6-1-0---6---6---------0-0-------0-0-0-
 - -1-0-----------000---------------1-0-----------------0-0-------0-0-0-

 


 PM .. ... .....


 


 

 
 - -------------------------------------------------------6-6-6-6-6-
 - -------------------------------------------------------x-x-x-x-x-
 - -------------------------------------------------------3-3-3-3-3-
 - -1-0---------------------------------------------------0-0-0-0-0-
 - -1-0-------------------------------------------------------------
 - -1-0-------------------------------------------------------------

 


 [-]  


 

 
 - -----------------------------------------------5---5---6-6-6-6-6-
 - -------4---4-------------4-------------4---4---x---x---x-x-x-x x-
 - -------7---7-----------7----7----------7---7---3---3---3-3-3-3-3-
 - -1-0---0---0---------------------1-0---0---0---0---0---0-0-0-0-0-
 - -1-0---6---6---00---6----------6-1-0---6---6-00------0-----------
 - -1-0-----------000---------------1-0---------00------0-----------

 


 PM .. .. .


 


 

 
 - -----------------------------------------------10-10-----11-11-------
 - -------4---4-------------4-------------4---4---x--x------x--x--------
 - -------7---7-----------7----7----------7---7---7--7------8--8--------
 - -1-0---0---0---------------------1-0---0---0-------------------------
 - -1-0---6---6---00---6----------6-1-0---6---6---------0-0-------0-0-0-
 - -1-0-----------000---------------1-0-----------------0-0-------0-0-0-

 


 PM .. ... .....


 

 
 - -----------------------------------------------10-10-----11-11-------
 - -------4---4-------------4-------------4---4---x--x------x--x--------
 - -------7---7-----------7----7----------7---7---7--7------8--8--------
 - -1-0---0---0---------------------1-0---0---0-------------------------
 - -1-0---6---6---00---6----------6-1-0---6---6---------0-0-------0-0-0-
 - -1-0-----------000---------------1-0-----------------0-0-------0-0-0-

 


 PM .. ... .....


 


 

 
 - -----------------------------------------------5---5-------------
 - -------4---4-------------4-------------4-------x---x-------------
 - -------7---7-----------7----7----------7-------3---3---8-8-8-8-8-
 - -1-0---0---0---------------------1-0---0-------0---0---x-x-x-x-x-
 - -1-0---6---6---00---6----------6-1-0---6---0---------0-6-6-6-6-6-
 - -1-0-----------000---------------1-0-------0---------0-----------

 


 PM .. . .


 

 
 - -----------------------------------------------5---5---6-6-6-6-6-
 - -------4---4-------------4-------------4-------x---x---x-x-x-x-x-
 - -------7---7-----------7----7----------7-------3---3---3-3-3-3-3-
 - -1-0---0---0---------------------1-0---0-------0---0-------------
 - -1-0---6---6---00---6----------6-1-0---6---0---------0-----------
 - -1-0-----------000---------------1-0-------0---------0-----------

 


 PM .. . .


 


 [Riff 2] - [01:47] - [01:53]


 [Riff 3a] - [01:53] - [02:18]


 [Riff 3b] - [01:52] - [02:18]


 


 [Riff 7] - [02:18] - [02:41]


 

 
 - -----------------------------------------------------
 - -----------------------------------------------------
 - -----------------------------------------------------
 - -0--0--0-----0--0--0-----0--0--0-----8\-7----5/-7--7-
 - -0--0--0-----0--0--0-----6--6--6-----6\-5--0-3/-5--5-
 - -0--0--0-----0--0--0-----0--0--0-----8\-7--0-5/-7--7-

 


 PM .


 


 

 
 - -----------------------------------------------------
 - -----------------------------------------------------
 - -----------------------------------------------------
 - -0--0--0-----0--0--0-----0--0--0-----8\-7----8---8---
 - -0--0--0-----0--0--0-----6--6--6-----6\-5--0-6-0-6---
 - -0--0--0-----0--0--0-----0--0--0-----8\-7--0-8-0-8---

 


 PM . .


 


 

 
 - -----------------------------------------------------
 - -----------------------------------------------------
 - -----------------------------------------------------
 - -0--0--0-----0--0--0-----0--0--0-----8\-7----5/-7--7-
 - -0--0--0-----0--0--0-----6--6--6-----6\-5--0-3/-5--5-
 - -0--0--0-----0--0--0-----0--0--0-----8\-7--0-5/-7--7-

 


 PM .


 


 

 
 - -----------------------------------------------------
 - -----------------------------------------------------
 - -----------------------------------------------------
 - -0--0--0-----0--0--0-----0--0--0-----8\-7----7---7\--
 - -0--0--0-----0--0--0-----6--6--6-----6\-5--0-5-0-5\--
 - -0--0--0-----0--0--0-----0--0--0-----8\-7--0-7-0-7\--

 


 PM . .


 


 [Riff 8, Guitar 1 & 2] - [02:41] - [02:57]


 

 
 - -----------------------------------------------------------------
 - ---------4---------------4---------------4---------------4-------
 - -------7----7----------7----7----------7----7----------7----7----
 - ----0----------0----0----------0----0----------0----0----------0-
 - -6---------------6---------------6---------------6---------------
 - -----------------------------------------------------------------

 


 [-]  


 

 
 - -----------------------------------------------------------------
 - -----------------------------------------------------------------
 - -----------------------------------------------------------------
 - -----------------------------------------------------------------
 - -0000-0-00-----------------------0000-0-00-----------------------
 - -0000-0-00-----------------------0000-0-00-----------------------

 


 PM ...............................................................


 


 

 
 - -----------------------------------------------------------------
 - ---------4---------------4---------------4-----------------------
 - -------7----7----------7----7----------7----7--------------------
 - ----0----------0----0----------0----0----------0-----------------
 - -6---------------6---------------6-------------------------------
 - -----------------------------------------------------------------

 


 [-]  


 

 
 - -----------------------------------------------------------------
 - -----------------------------------------------------------------
 - -----------------------------------------------------------------
 - -----------------------------------------------------------------
 - -0000-0-00-----------------------0000-0-00-------0-00-0----------
 - -0000-0-00-----------------------0000-0-00-------0-00-0----------

 


 PM ...............................................................


 


 [Riff 9] - [02:57] - [03:28]


 

 
 - -------------------------------------------------------------------
 - -------------------------------------------------------------------
 - -------------------------------------------------------------------
 - -------------/3\------------------------------/3\------------------
 - -0000-0-00-0-0000-0-00-0----------0000-0-00-0-0000-0-00-0--0-00--0-
 - -0000-0-00-0-0000-0-00-0----------0000-0-00-0-0000-0-00-0--1-11--1-

 


 PM .................................................................


 


 

 
 - --------------------------10-/22---------------------------------------------------
 - --------------------------x---x----------------------------------------------------
 - --------------------------8--/20---------------------------------------------------
 - -------------/3\------------------------------/3\----------------1-----------------
 - -0000-0-00-0-0000-0-00-0----------0000-0-00-0-0000-0-00-0--0-00--0-----------------
 - -0000-0-00-0-0000-0-00-0----------0000-0-00-0-0000-0-00-0--1-11--1-----------------


Important: The song above is NOT stored on the Chordie server. The original song is hosted at www.azchords.com. Chordie works as a search engine and provides on-the-fly formatting. Chordie does not index songs against artists'/composers' will. To remove this song please click here.

This song is displayed as text-only. Transposing and tuning is only available for chordpro-songs.
Rate #1 of 1 versions

Jango Player

Login - add to songbook

SHARE PAGE  




You need to log in to post comments