Guitar Tabs, Chords and Lyrics
Server problems seems to be fixed. Chordie has been experiencing problems with songs disappearing. These issues now seems to be fixed, but still verifying the fix. If you find anything strange, please email admin@chordie.com.


Hey Julie  Fountains of Wayne

Tuning: Stadard [EADGBe]
Notes: Chords with an asterisk (*) means to single strum and let ring.
Chords at the end for practicing (no vocals or solos).
Chords used:
[G] [C9] [D] [Em7] [Bm]  
 
 e|--3----3----2----3----2--|
 B|--3----3----3----3----3--|
 G|--0----0----2----0----4--|
 D|--0----2----0----2----4--|
 A|--2----3---------2----2--|
 E|--3--------------0-------|

Strumming Pattern Example:
[G] [C9] [G] [D]  
 
 e|-3---3-3-3---3-3-|---3---2-2-2-2-2-|
 B|-3---3-3-3---3-3-|---3---3-3-3-3-3-|
 G|-0---0-0-0---0-0-|---0---2-2-2-2-2-|
 D|-0---0-2-2---2-0-|---0---0-0-0-0-0-|
 A|-2---2-3-3---3-2-|---2-------------|
 E|-3---3---------3-|---3-------------|

[1] [+] [2] [+] [3] [+] [4] [+] [1] [+] [2] [+] [3] [+] [4] [+] 
Please comment & rank. Thank you!!!
[INTRO] 
 
 |G - C9 -|G - D -|G - C9 -|G - D -|

[VERSE 1] 
[G]Working all [C9]day for a [G]mean little [D]man
With a [G]clip-on [C9]tie and a [G]rub-on [D]tan
He's got me [Em7]running 'round the [C9]office like a [D]dog around a [G]track
But [Em7]when I get back [C9]home, you're always [D]there to rub my [G]back
[CBORUS] 
[G]Hey [C9]Julie,
[D]Look what they're [C9]doing to me
[Em7]Trying to trip me [C9]up
Trying to [D]wear me [G]down
[G]Julie, I [C9]swear, it's [D]so hard to [C9]bear it
And I'd [Em7]never make it [C9]through witho[D]ut you a[G]round
No I'd n[Em7]ever make it t[C9]hrough withou[D]t you ar[G]ound
[PREVERSE] 
Piano:
[G] [C9] [G] [D] [G] [C9] [D] [G]  
 
 e|-----7---8-7-----|---7--------7------|-----7---8-7-----|-----------------|
 B|-------8-----8---|-------8-10---10-8-|-------8-----8---|---7---8---------|
 G|---------------7-|-------------------|-7-------------7-|-----------------|
 D|-----------------|-------------------|-----------------|-----------------|
 A|-----------------|-------------------|-----------------|-----------------|
 E|-----------------|-------------------|-----------------|-----------------|

[1] [+] [2] [+] [3] [+] [4] [+] [1] [+] [2] [+] [3] [+] [4] [+] [1] [+] [2] [+] [3] [+] [4] [+] [1] [+] [2] [+] [3] [+] [4] [+] 
Harmonica:
 
 e|-7---------------|---------8-7------|-7----------------|-----------------|
 B|-8---------------|---------8-8-10-8-|-8-------------10-|---10----8-------|
 G|-----------------|-------------7--7-|---------------7--|---7-----7-------|
 D|-----------------|------------------|------------------|-----------------|
 A|-----------------|------------------|------------------|-----------------|
 E|-----------------|------------------|------------------|-----------------|

[1] [+] [2] [+] [3] [+] [4] [+] [1] [+] [2] [+] [3] [+] [4] [+] [1] [+] [2] [+] [3] [+] [4] [+] [1] [+] [2] [+] [3] [+] [4] [+] 
[VERSE 2] 
[G]Hours on the [C9]phone making [G]pointless calls[D]
I got a [G]desk full of [C9]papers that means [G]nothing at all[D]
Some[Em7]times I catch my[C9]self [D]staring into[G] space
[Em7]Counting down the [C9]hours 'til I [D]get to see your[G] face
[CBORUS] 
[G]Hey [C9]Julie,
[D]Look what they're [C9]doing to me
[Em7]Trying to trip me [C9]up
Trying to [D]wear me [G]down
[G]Julie, I [C9]swear, it's [D]so hard to [C9]bear it
And I'd [Em7]never make it [C9]through witho[D]ut you a[G]round
No I'd n[Em7]ever make it t[C9]hrough withou[D]t you ar[G]ound
[BRIDGE] 
*Em7
How did it come to be
*Bm
That you and I must be
*C9 D
Far away from each other every day?
*Em7
Why must I spend my time
*Bm
Filling up my mind
*C9
With facts and figures that
[D]Never add up anyway?
[C9] They [C9]never add up anyway
[SOLO] 
Guitar:
[G] [C9] [G] [D] [G] [C9] [G] [D]  
 
 e|-----7--------------|-------------3---|-----7--------------|-----------------|
 B|-------8-10-8-------|-----------3-----|-------8-10-8-------|---------7-8-7---|
 G|----------------7h9-|---7-----4-------|----------------7h9-|---7---0-------7-|
 D|--------------------|-------5---------|--------------------|-----------------|
 A|--------------------|-----------------|--------------------|-----------------|
 E|--------------------|-----------------|--------------------|-----------------|

[1] [+] [2] [+] [3] [+] [4] [+] [1] [+] [2] [+] [3] [+] [4] [+] [1] [+] [2] [+] [3] [+] [4] [+] [1] [+] [2] [+] [3] [+] [4] [+] 
[Em7] [C9] [D] [G] [Em7] [C9] [D] [G]  
 
 e|--------------------|----------------------|-----------------|------------------|
 B|--------------------|----------------------|---3---3---0---0-|--5p3---3---------|
 G|-----4---5----------|----------------------|-0---------------|------------------|
 D|-------5-------5h7--|---5------------------|-----4---2---0---|------------5---5-|
 A|--------------------|-------5-7-5----------|-----------------|------------------|
 E|--------------------|-------------5h7p5----|-3---------------|------------------|

[1] [+] [2] [+] [3] [+] [4] [+] [1] [+] [2] [+] [3] [+] [4] [+] [1] [+] [2] [+] [3] [+] [4] [+] [1] [+] [2] [+] [3] [+] [4] [+] 
Piano:
[G] [C9] [G] [D] [G] [C9] [G] [D]  
 
 e|-----7---8-7-----|---7--------7------|-----7---8-7-----|-----------------|
 B|-------8-----8---|-------8-10---10-8-|-------8-----8---|---8-----8---7---|
 G|-7-------------7-|-------------------|-7-------------7-|-------7---7-----|
 D|-----------------|-------------------|-----------------|-----------------|
 A|-----------------|-------------------|-----------------|-----------------|
 E|-----------------|-------------------|-----------------|-----------------|

[1] [+] [2] [+] [3] [+] [4] [+] [1] [+] [2] [+] [3] [+] [4] [+] [1] [+] [2] [+] [3] [+] [4] [+] [1] [+] [2] [+] [3] [+] [4] [+] 
[Em] [C9] [D] [G] [Em7] [C9] [D] [G] [G]  
 
 e|-----7---8-7-----|---7--------7------|-----7---8-7-----|-----------------|---|
 B|-------8-----8---|-------8-10---10-8-|-------8-----8---|---8-----8---7---|-8-|
 G|-7-------------7-|-------------------|-7-------------7-|-------7---7-----|---|
 D|-----------------|-------------------|-----------------|-----------------|---|
 A|-----------------|-------------------|-----------------|-----------------|---|
 E|-----------------|-------------------|-----------------|-----------------|---|

[1] [+] [2] [+] [3] [+] [4] [+] [1] [+] [2] [+] [3] [+] [4] [+] [1] [+] [2] [+] [3] [+] [4] [+] [1] [+] [2] [+] [3] [+] [4] [+] [1] 
[VERSE 3] 
[G]Working all [C9]day for a [G]mean little [D]guy
 
 e|------------------|---------------------|---|
 B|------------------|-------------3h5p3h5p|3--|
 G|------------------|---------------------|---|
 D|------------------|---------------------|---| (Guitar)
 A|------------------|---------------------|---|
 E|------------------|---------------------|---|

With a [G]bad tou[C9]pee and a [G]soup-stained [D]tie
He's got me [Em7]running 'round the [C9]office
Like a [D]gerbil on a [G]wheel
He can [Em7]tell me what to [C9]do
But he can't [D]tell me what to [G]feel
[CBORUS] 
[G]Hey [C9]Julie,
[D]Look what they're [C9]doing to me
[Em7]Trying to trip me [C9]up
Trying to [D]wear me [G]down
[G]Julie, I [C9]swear, it's [D]so hard to [C9]bear it
And I'd [Em7]never make it [C9]through with[D]out you [G]around
No I'd n[Em7]ever make it t[C9]hrough witho[D]ut you a[G]round
No I'd n[Em7]ever make it t[C9]hrough witho[D]ut you a[G]round
_________________________________________________________________________________________________
[INTRO] 
 
 |G - C9 -|G - D -|G - C9 -|G - D -|

[VERSE 1] 
 
 |G - C9 -|G - D -|G - C9 -|G - D -|Em7 - C9 -|D - G -|Em7 - C9 -|D - G -|

[CBORUS] 
 
 |G - C9 -|D - C9 -|Em7 - C9 -|D - G -|G - C9 -|D - C9 -|Em7 - C9 -|D - G -|Em7 - C9 -|D - G -|

[PREVERSE] 
 
 |G - C9 -|G - D -|G - C9 -|D - G -|

[VERSE 2] 
 
 |G - C9 -|G - D -|G - C9 -|G - D -|Em7 - C9 -|D - G -|Em7 - C9 -|D - G -|

[CBORUS] 
 
 |G - C9 -|D - C9 -|Em7 - C9 -|D - G -|G - C9 -|D - C9 -|Em7 - C9 -|D - G -|Em7 - C9 -|D - G -|

[BRIDGE] 
 
 |*Em7 - - -|*Bm - - -|*C9 - - -|D - - -|*Em7 - - -|*Bm - - -|*C9 - - -|D - - -|C9 - - -|C9 - - -|

[SOLO] 
 
 |G - C9 -|G - D -|G - C9 -|G - D -|Em7 - C9 -|G - D -|Em7 - C9 -|G - D -|

[VERSE 3] 
 
 |G - C9 -|G - D -|G - C9 -|G - D -|Em7 - C9 -|D - G -|Em7 - C9 -|D - G -|

[CBORUS] 
 
 |G - C9 -|D - C9 -|Em7 - C9 -|D - G -|G - C9 -|D - C9 -|Em7 - C9 -|D - G -|
 |Em7 - C9 -|D - G -|Em7 - C9 -|D - G -|


Important: The song above is NOT stored on the Chordie server. The original song is hosted at www.azchords.com. Chordie works as a search engine and provides on-the-fly formatting. Chordie does not index songs against artists'/composers' will. To remove this song please click here.

Text color:
Chord color:
Chord grids: 
Font size:    
Page size: 

Bm C9 D Em Em7 G
Rate #1 of 11 versions

Jango Player

Login - add to songbook

SHARE PAGE  



You need to log in to post comments