Guitar Tabs, Chords and Lyrics
Server problems seems to be fixed. Chordie has been experiencing problems with songs disappearing. These issues now seems to be fixed, but still verifying the fix. If you find anything strange, please email admin@chordie.com.


Dilate  Four Star Mary

[A] [E] [F#] [D] [Cm]  
 
 --- --- --- --- ---
 --- --- --- --- ---
 -2- --- --- -7- -6-
 -2- -2- -4- -7- -6-
 -0- -2- -4- -5- -4-
 --- -0- -2- --- ---

INTR0:
[A] [E]  
 
 -------------------
 -------------------
 -2-----------------
 -2---------------2-
 -0---------------2-
 -----------------0-

when I see your face
[F#] [D]  
 
 ------------------
 ------------------
 ----------------7-
 -4--------------7-
 -4--------------5-
 -2----------------

my eyes just dilate
LEAD
 
 --0--0--0--0--0--0--0--0-0--0-0-0-0-0-0-0-0-0-----------
 -10-10-10-10-10-10-12-12-9--7-7-7-7-7-7-9-9-5-----------
 --------------------------------------------------------
 --------------------------------------------------------
 --------------------------------------------------------
 --------------------------------------------------------

(This part is played in many parts of the song, mainly the intro & chorus, but just listen out for it).
VERSE:
(The verses are very hard to hear; I can tell that there's a flanger used somewhere.
The chords for the verse are just A, E, F, D, but they are hardly heard at all).
CHORUS:
[A] [E]  
 
 -------------------
 -------------------
 -2-----------------
 -2---------------2-
 -0---------------2-
 -----------------0-

when I see your face
[F#] [D]  
 
 ------------------
 ------------------
 ----------------7-
 -4--------------7-
 -4--------------5-
 -2----------------

my eyes just dilate
[A] [E]  
 
 -------------------
 -------------------
 -2-----------------
 -2---------------2-
 -0---------------2-
 -----------------0-

but i can't erase
[F#] [D]  
 
 ------------------
 ------------------
 ----------------7-
 -4--------------7-
 -4--------------5-
 -2----------------

that i want to violate
VERSE
(Same as last verse)
CHORUS:
[A] [E]  
 
 -------------------
 -------------------
 -2-----------------
 -2---------------2-
 -0---------------2-
 -----------------0-

when I see your face
[F#] [D]  
 
 ------------------
 ------------------
 ----------------7-
 -4--------------7-
 -4--------------5-
 -2----------------

my eyes just dilate
[A] [E]  
 
 -------------------
 -------------------
 -2-----------------
 -2---------------2-
 -0---------------2-
 -----------------0-

but i can't erase
[F#] [D]  
 
 ------------------
 ------------------
 ----------------7-
 -4--------------7-
 -4--------------5-
 -2----------------

that i want to violate
[A] [E]  
 
 -------------------
 -------------------
 -2-----------------
 -2---------------2-
 -0---------------2-
 -----------------0-

every bit and everything and
[F#] [D]  
 
 ------------------
 ------------------
 ----------------7-
 -4--------------7-
 -4--------------5-
 -2----------------

every part of you
BREAK DOWN
[D] [A]  
 
 -------------------
 -------------------
 -7---------------2-
 -7---------------2-
 -5---------------0-
 -------------------

i've suffered enough
[Cm] [D]  
 
 ------------------
 ------------------
 -6--------------7-
 -6--------------7-
 -4--------------5-
 ------------------

it's killing me
[D] [A]  
 
 -------------------
 -------------------
 -7---------------2-
 -7---------------2-
 -5---------------0-
 -------------------

i've suffered enough
[Cm] [D]  
 
 ------------------
 ------------------
 -6--------------7-
 -6--------------7-
 -4--------------5-
 ------------------

it's killing me
(Then just strum the D lightly, then really hit it, then launch into the chorus).
CHORUS:
[A] [E]  
 
 -------------------
 -------------------
 -2-----------------
 -2---------------2-
 -0---------------2-
 -----------------0-

when I see your face
[F#] [D]  
 
 ------------------
 ------------------
 ----------------7-
 -4--------------7-
 -4--------------5-
 -2----------------

my eyes just dilate
[A] [E]  
 
 -------------------
 -------------------
 -2-----------------
 -2---------------2-
 -0---------------2-
 -----------------0-

but i can't erase
[F#] [D]  
 
 ------------------
 ------------------
 ----------------7-
 -4--------------7-
 -4--------------5-
 -2----------------

that i want to violate
[A] [E]  
 
 -------------------
 -------------------
 -2-----------------
 -2---------------2-
 -0---------------2-
 -----------------0-

every bit and everything and
[F#] [D]  
 
 ------------------
 ------------------
 ----------------7-
 -4--------------7-
 -4--------------5-
 -2----------------

every part of you
Guitar 1:
[A] [E] [F#] [D] 
 
 --------------------------------------------------------
 --------------------------------------------------------
 ---2-------------------------------------------7--------
 ---2-------------2------------4----------------7--------
 ---0-------------2------------4----------------5--------
 -----------------0------------2-------------------------

Guitar 2:
 
 --0--0--0--0--0--0--0--0-0--0-0-0-0-0-0-0-0-0-----------
 -10-10-10-10-10-10-12-12-9--7-7-7-7-7-7-9-9-5-----------
 --------------------------------------------------------
 --------------------------------------------------------
 --------------------------------------------------------
 -------------------------------------------------------- 

Guitar 1:
[D] [A] [D] [A] [D] [A] [Cm] 
 
 --------------------------------------------------------------
 --------------------------------------------------------------
 ---7-------------------7-----------------7-------2---------6--
 ---7---------2---------7--------2--------7-------2---------6--
 ---5---------2---------5--------2--------5-------0---------4--
 -------------0------------------0-----------------------------

Guitar 2:
 
 --0--0--0--0--0--0--0--0-0--0-0-0-0-0-0-0-0-0-----------
 -10-10-10-10-10-10-12-12-9--7-7-7-7-7-7-9-9-5-----------
 --------------------------------------------------------
 --------------------------------------------------------
 --------------------------------------------------------
 --------------------------------------------------------

And that's it. Thanks people.

Important: The song above is NOT stored on the Chordie server. The original song is hosted at www.azchords.com. Chordie works as a search engine and provides on-the-fly formatting. Chordie does not index songs against artists'/composers' will. To remove this song please click here.

Text color:
Chord color:
Chord grids: 
Font size:    
Page size: 

A Cm D E F#
Rate #1 of 2 versions

Jango Player

Login - add to songbook

SHARE PAGE  



You need to log in to post comments