Guitar Tabs, Chords and Lyrics
Server problems seems to be fixed. Chordie has been experiencing problems with songs disappearing. These issues now seems to be fixed, but still verifying the fix. If you find anything strange, please email admin@chordie.com.


Thrown to the Wolves  Four Star Mary

Chords used:
[D] [G] [Bm] [E] [C]  
 
 |--2----3----2----0----0----------------------------
 |--3----3----3----0----1----------------------------
 |--2----0----4----1----0----------------------------
 |--0----0----4----2----2----------------------------
 |--x----2----2----2----3----------------------------
 |--x----3----2----0----0----------------------------

Verse 1:
 
 |---------------------------------------------------
 |-32-32-32-32-32-32-32-32--32-32-32-32-32-32-32-32--
 |---------------------------------------------------
 |-00-00-00-00-00-00-00-00---------------------------
 |---------------------------------------------------
 |--------------------------33-33-33-33-33-33-33-33--
 |---------------------------------------------------
 |-32-32-32-32-32-32-32-32--32-32-32-32-32-32-32-32--
 |---------------------------------------------------
 |---------------------------------------------------
 |-22-22-22-22-22-22-22-22---------------------------
 |--------------------------33-33-33-33-33-33-33-33--

Play twice
Bridge:
[D] [G]  
[Bm] [E] [G]  
Chorus:
[D] [C]  
[Bm] [G]  
Verse 2: as verse 1
Bridge
Chorus x4
Thats pretty much it, you'll have to listen to it to get the right strumming pattern etc.
Any corrections etc please e-mail me

Important: The song above is NOT stored on the Chordie server. The original song is hosted at www.azchords.com. Chordie works as a search engine and provides on-the-fly formatting. Chordie does not index songs against artists'/composers' will. To remove this song please click here.

Text color:
Chord color:
Chord grids: 
Font size:    
Page size: 

Bm C D E G
Rate #1 of 1 versions

Login - add to songbook

SHARE PAGE  



You need to log in to post comments