Guitar Tabs, Chords and Lyrics
Server problems seems to be fixed. Chordie has been experiencing problems with songs disappearing. These issues now seems to be fixed, but still verifying the fix. If you find anything strange, please email admin@chordie.com.


Night Channels  Foxing

INTRO AND VERSE:
This pattern is just repeated throughout the entire intro and verse.
It is quite tricky to play all the notes so some can be left out.
 
 e|-2----2-------0---------------------2----2-------0-----|
 B|-3----3-------0---------------------3----3-------0-----|
 G|-2--2-2---2-0-0---------------------2--2-2---2-0-0-----|
 D|-0----0-------2---2--4-2-0----0-2h4-0----0-------2-----|
 A|--------------2------------2---------------------2-----|
 E|--------------0----------------------------------0-----|

CHORUS:
it's just simple piano chords, I've made them guitar chords of course.
[D]Future [Em]love don't f[F#m]all apart, [D]future [Em]love don't f[F#m]all apart...
 
 e|-2------0-----------2----------2------0-----------2-----------|
 B|-3------0-----------2----------3------0-----------2-----------|
 G|-2------0-----------2----------2------0-----------2-----------|
 D|-0------2-----------4----------0------2-----------4-----------|
 A|--------2-----------4-----------------2-----------4-----------|
 E|--------0-----------2-----------------0-----------2-----------|

VERSE 2:
The same repeated pattern is played again, however there are now
drums and synths everywhere, there is a droning synth playing
D and E notes over this however playing guitar for that doesn't sound
very good.
 
 e|-2----2-------0---------------------2----2-------0-----|
 B|-3----3-------0---------------------3----3-------0-----|
 G|-2--2-2---2-0-0---------------------2--2-2---2-0-0-----|
 D|-0----0-------2---2--4-2-0----0-2h4-0----0-------2-----|
 A|--------------2------------2---------------------2-----|
 E|--------------0----------------------------------0-----|

A synth effect is playing throughout
the second verse which goes like this:
 
 e|-7/12---12/7---7/12---12/7---|
 B|-----------------------------|
 G|-----------------------------|
 D|-----------------------------|
 A|-----------------------------|
 E|-----------------------------|

A clean guitar solo is also played through the first 2 lines of
the second verse which is tabbed here:
 
 e|-12-14-12-14-12-17-14----12-14-12-10-12-17/14-----------------|
 B|--------------------------------------------------------------|
 G|-----------------------------------------------(9-7-9-7-9-7)--|
 D|--------------------------------------------------------------|
 A|--------------------------------------------------------------|
 E|--------------------------------------------------------------|

Finally, between the vocal lines in the second half of the verse, a
melody is played which is tabbed here:
 
 e|--------------------|
 B|-11-9-7-9-11-9-7-9--|
 G|--------------------|
 D|--------------------|
 A|--------------------|
 E|--------------------|

CHORUS:
This time the chords are still played, however there is a melody
played as well, which I believe is improvised so I have not tabbed it
I'm afraid.
[D]Future [Em]love don't f[F#m]all apart, [D]future [Em]love don't f[F#m]all apart...
 
 e|-2------0-----------2----------2------0-----------2-----------|
 B|-3------0-----------2----------3------0-----------2-----------|
 G|-2------0-----------2----------2------0-----------2-----------|
 D|-0------2-----------4----------0------2-----------4-----------|
 A|--------2-----------4-----------------2-----------4-----------|
 E|--------0-----------2-----------------0-----------2-----------|

BRIDGE:
The bridge begins with chords and a melody, these are tabbed here:
F#m D Em (plays through twice)
 
 e|--2----2----0----|
 B|--2----3----0----|
 G|--2----2----0----|
 D|--4----0----2----|
 A|--4---------2----|
 E|--2---------0----|

at the beginning of the bridge, a short melody is played, tabbed here:
 
 e|-5-2-----------------|
 B|------3--------------|
 G|----------4/2--------|
 D|---------------------|
 A|---------------------|
 E|---------------------|

the main melody of the first bridge section:
 
 e|-------------------------------------------------15-14-15-14-15(sustain)---|
 B|-15-17-15-17-15-17-15-17-15-17-15-17-15-17-15-17---------------------------|
 G|---------------------------------------------------------------------------|
 D|---------------------------------------------------------------------------|
 A|---------------------------------------------------------------------------|
 E|---------------------------------------------------------------------------|

BRIDGE PT 2:
the same chords are still played however there are droning synths and a new melody:
F#m D Em (repeated 4 times)
 
 e|--2----2----0----|
 B|--2----3----0----|
 G|--2----2----0----|
 D|--4----0----2----|
 A|--4---------2----|
 E|--2---------0----|
 e|----12-14-14b14b14b14----12-14-14b14b14b14----12-14-14b14b14b14----12-14-14b14b14b14-|
 B|-------------------------------------------------------------------------------------|
 G|-12-------------------12-------------------12-------------------12-------------------|
 D|-------------------------------------------------------------------------------------|
 A|-------------------------------------------------------------------------------------|
 E|-------------------------------------------------------------------------------------|
 e|----------------------------------------------------------------------------------------------|
 B|--3-5-3-5-3-5-3-5-3-5-3--3-5-3-5-3-5-3-5-3-5-3--3-5-3-5-3-5-3-5-3-5-3--3-5-3-5-3-5-3-5-3-5-3--|
 G|----------------------------------------------------------------------------------------------|
 D|----------------------------------------------------------------------------------------------|
 A|----------------------------------------------------------------------------------------------|
 E|----------------------------------------------------------------------------------------------|

CHORUS:
Same chords, rushing and droning synths everywhere on top.
[D]Future [Em]love don't f[F#m]all apart, [D]future [Em]love don't f[F#m]all apart
 
 e|-2------0-----------2----------2------0-----------2-----------|
 B|-3------0-----------2----------3------0-----------2-----------|
 G|-2------0-----------2----------2------0-----------2-----------|
 D|-0------2-----------4----------0------2-----------4-----------|
 A|--------2-----------4-----------------2-----------4-----------|
 E|--------0-----------2-----------------0-----------2-----------| 


Important: The song above is NOT stored on the Chordie server. The original song is hosted at www.azchords.com. Chordie works as a search engine and provides on-the-fly formatting. Chordie does not index songs against artists'/composers' will. To remove this song please click here.

Text color:
Chord color:
Chord grids: 
Font size:    
Page size: 

D Em F#m
Rate #1 of 1 versions

Jango Player

Login - add to songbook

SHARE PAGE  




You need to log in to post comments