Guitar Tabs, Chords and Lyrics
Server problems seems to be fixed. Chordie has been experiencing problems with songs disappearing. These issues now seems to be fixed, but still verifying the fix. If you find anything strange, please email admin@chordie.com.


Star Power III: What Are We Good For  Foxygen

INTRO
A G x4
VERSE 1 [0:12]
[A] [G] [A]  
 
 e|-5------5\3------3/5---|
 B|-5------5\3------3/5---|
 G|-6------6\4------4/6---|
 D|-7------7\5------5/7---|
 A|-----------------------|
 E|-----------------------|

I wrote "L.I.T.P.M." on my hand with your ink pen
You asked me what it is, I find out with an ellipsis
I was humming, "I've been set free," swerving through security like a ceramic donkey in an inner rant
Wearing filthy once-white terrace pants with a broken floor tom, it's such a luxury
[G] [F] [F#] [G]  
 
 e|-3------3\1------2/3---|
 B|-3------3\1------2/3---|
 G|-4------4\2------3/4---|
 D|-5------5\3------4/5---|
 A|-----------------------|
 E|-----------------------|

They might bust my lady but they'll never get me
They might bust my lady but they'll never get me
CHORUS [0:40]
[C] What are we go[G]od for,[Dm] if we can't [G]make it?
[C] What are we go[G]od for,[Dm] if we can't [G]make it, make it?
[C] What are we go[G]od for,[Dm] if we can't [G]make it?
[C] What are we go[G]od for,[Dm] if we can't [G]make it, make it?
[A]Make it, make it[G]
[A]Make it, make it[G]
A G x2
VERSE 2 [1:22]
[A] [G] [A]  
 
 e|-5------5\3------3/5---|
 B|-5------5\3------3/5---|
 G|-6------6\4------4/6---|
 D|-7------7\5------5/7---| (play A and G in this fashion)
 A|-----------------------|
 E|-----------------------|

You can't control the system, can't control my mind
You can't control me, you can't control me
[G] [F] [F#] [G]  
 
 e|-3------3\1------2/3---|
 B|-3------3\1------2/3---|
 G|-4------4\2------3/4---|
 D|-5------5\3------4/5---|
 A|-----------------------|
 E|-----------------------|

CHORUS [1:49]
[C] What are we go[G]od for,[Dm] if we can't [G]make it?
[C] What are we go[G]od for,[Dm] if we can't [G]make it, make it?
[C] What are we go[G]od for,[Dm] if we can't [G]make it?
[C] What are we go[G]od for,[Dm] if we can't [G]make it, make it?
[A]Make it, make it[G]
[A]Make it, make it[G]
[A]Make it, make it[G]
[A]Make it, make it[G]
BRIDGE [2:30]
F Am \
G / x4
OUTRO [2:58]
[A] [G] [A]  
 
 e|-5------5\3------3/5---|
 B|-5------5\3------3/5---|
 G|-6------6\4------4/6---|
 D|-7------7\5------5/7---|
 A|-----------------------|
 E|-----------------------|


Important: The song above is NOT stored on the Chordie server. The original song is hosted at www.azchords.com. Chordie works as a search engine and provides on-the-fly formatting. Chordie does not index songs against artists'/composers' will. To remove this song please click here.

Text color:
Chord color:
Chord grids: 
Font size:    
Page size: 

A C Dm F F# G
Rate #1 of 1 versions

Login - add to songbook

SHARE PAGE  




You need to log in to post comments