Guitar Tabs, Chords and Lyrics
Server problems seems to be fixed. Chordie has been experiencing problems with songs disappearing. These issues now seems to be fixed, but still verifying the fix. If you find anything strange, please email admin@chordie.com.


Santa Maria  The Frames

<i></i> G Gmaj7 Em Em/Gb C
 
 E|--3--| |--2--| |-----| |--2--| |-----|
 B|-----| |-----| |-----| |-----| |--1--|
 G|-----| |-----| |-----| |-----| |-----|
 D|-----| |-----| |--2--| |--2--| |--2--|
 A|--2--| |--2--| |--2--| |--2--| |--3--|
 E|--3--| |--3--| |-----| |-----| |-----|

Intro: G Gmaj7 Em Em/Gb Em Em/Gb x2
Verse 1:
Let me off of t[G]his boat
I'm sick of this ride
The world is heading ever s[Gmaj7]outhward
And[Em] I can't stay in here[Em/Gb] [Em] [Em/Gb]
Verse 2:
And you're lying [G]awake
Away on your side
The feeling comes in waves[Gmaj7] and burns us
And [Em]I don't wanna die[Em/Gb] [Em] [Em/Gb]
Verse 3:
[G]  
To the line of your throat
The fever now consumes[Gmaj7] us both
In a [Em]fire now we will go[Em/Gb] [Em] [Em/Gb]
Chorus:
[C]  
Why did you have to [Em]go?[Em/Gb] [Em] [Em/Gb]
(stop)[C]
One day we will know
Bridge: G Gmaj7 Em Em/Gb Em Em/Gb x2
Verse 4:
In a bowing of he[G]ads and a passing of hands
And all we thought they'd un[Gmaj7]derstand
Is l[Em]ost and they won't know[Em/Gb] [Em] [Em/Gb]
Verse 5:
And what have [G]we left
It's all that we've got
There is no 'X' to mark [Gmaj7]our spot
What's [Em]past is done and gone[Em/Gb] [Em] [Em/Gb]
Chorus:
[C]  
Why did you have b[Em]urn?[Em/Gb] [Em] [Em/Gb]
(stop)[C]
One day you will learn
long G - (distortion) G Em
Chorus:
[C]  
Why did you have to [Em]go?
[C]  
One day we will k[Em]now
Outro: G Em
Solo:
 
 E|----------------------------------|
 B|---12------------9----------------|
 G|-------12-9----9-----12-9----9----| repeat many times
 D|------------12------------12------|
 A|----------------------------------|
 E|----------------------------------|


Important: The song above is NOT stored on the Chordie server. The original song is hosted at www.azchords.com. Chordie works as a search engine and provides on-the-fly formatting. Chordie does not index songs against artists'/composers' will. To remove this song please click here.

Text color:
Chord color:
Chord grids: 
Font size:    
Page size: 

C Em Em/Gb G Gmaj7
Rate #1 of 5 versions

Jango Player

Login - add to songbook

SHARE PAGE  



You need to log in to post comments