Guitar Tabs, Chords and Lyrics
Server problems seems to be fixed. Chordie has been experiencing problems with songs disappearing. These issues now seems to be fixed, but still verifying the fix. If you find anything strange, please email admin@chordie.com.


Bullet  Franz Ferdinand

Okay, the chords for the intro are as follows (all barre):
G|Em|B|D
The lead guitar then kicks in with this:
 
 e|------------------------------------------|
 B|------------------------------------------|
 G|------------------------------------------|
 D|------------------------------------------|
 A|--333-2222-333-222/-----------------------|
 E|------------------------------------------|

Then slides up to play:
 
 e|--------------------------------------------------------|
 B|--------------------------------------------------------|
 G|--------------------------------------------------------|
 D|-----------9-999-10-9-7-------7-9-10-9-999-7-9-10-999---|
 A|----10-9-7--------------7-777---------------------------|
 E|--------------------------------------------------------|

There is no guitar for the first part of the verse, here:
While I'm away, you can
Let the mouse go down on you
Let the mouse do what I do
The chords for the verse are exactly the same as the intro:
If I was t[G]here, but you'd better ex[Em]plain
That I have v[B]endetta in my na[D]rrow bones
And a[B] vindictive [D]eye
Of my[B] jealousy I have no [D]control, no control
The chorus introduces a new chord pattern:
[Bb]I'll never get your bullet out of my h[G]ead now, baby
[Bb]I'll never get your bullet out of my [G]mind
[Dm]I'll never get your bullet out of my h[G]ead now, baby
[Dm]I'll never get your bullet out of my [G]mind
[G]How can I get your bullet out of my [F]head now
I have no control, but I [C]try, yeah I tr[G]y
Here a new riff is introduced and played four times:
 
 e|--------------------------------------------|
 B|--------------------------------------------|
 G|--------------------------------------------|
 D|--------------------------------------------|
 A|---------------2222----0-2------------------|
 E|--3333-0-3-5-3------00----------------------|

You then go back and play the intro riff twice, then play the same verse chords as
before except to these lyrics:
So I'd better explain that I have a
Red vendetta in my narrow bones
A wicked indicative eye
Of my yellow jealousy I have no control, no control
The chorus is then played up to "How can I get..." then this is played three times:
[G]Get out of my [F]head, get out of my [C]head now
Finally:
Get out of my [G]mind.

Important: The song above is NOT stored on the Chordie server. The original song is hosted at www.azchords.com. Chordie works as a search engine and provides on-the-fly formatting. Chordie does not index songs against artists'/composers' will. To remove this song please click here.

Text color:
Chord color:
Chord grids: 
Font size:    
Page size: 

B Bb C D Dm Em F G
Rate #1 of 4 versions

Jango Player

Login - add to songbook

SHARE PAGE  




You need to log in to post comments