Guitar Tabs, Chords and Lyrics
Update 25:10. 13:00. Site is back up running again. Songbooks are recovered. Woring on getting search back up..


One World  The Freddy Jones Band

Freddy Jones Band
Intro: D G (x4)
[D] On the Gypsies [G]avenue ton[A]ight
[D] Hundred lairs seem like a [G]thousand candle [A]lights
[D] I do not read what the [G]signs they have to s[A]ay
[D] In my soul there are [G]riches locked aw[A]ay
[D] One world with[G]in[A]
[D] One heart is [G]beating still tod[A]ay
[D] An open [G]road[A]
[D] One love can [G]carry you aw[A]ay
[D] If you lost [G]all of your obse[A]ssions
[D] Could you part with what you [G]claim to be your posse[A]ssions
[D] I do believe in a [G]sweet imagin[A]ation
[D] An open road [G]paved by inspir[A]ation
[D] One world with[G]in[A]
[D] One heart is [G]beating still tod[A]ay
[D] An open [G]road[A]
[D] One love can [G]carry you aw[A]ay
Lead:
 
 E---------------------------------------------------------------------|
 B---------------------------------------------------------------------|
 G------------------0----------0-1^2-----------------------------------|
 D--0------0-2^4-------4-2-4----------0--------0-2^4-------------------|
 A----2h0---------------------------------2h0----------2h0-2-0-0-------|
 E---------------------------------------------------------------------|
 E----------------------------------------------------2-2-3-5----------|
 B--------------------------------------------3-3-5--------------------|
 G------------------0------------0-1^2--2^4----------------------------|
 D--0------0-2^4---------4-2-4-----------------------------------------|
 A----2h0--------------------------------------------------------------|
 E---------------------------------------------------------------------|
 E--2-3-2---------------------------------------2-3-2-------------7h5--|
 B----------3-2-3-2---------------------------------------3-5^7--------|
 G---------------------2-2-0--------0-1^2------------------------------|
 D-----------------------------4------------0--------------------------|
 A------------------------------------------0--------------------------|
 E---------------------------------------------------------------------|
 E---------------------------------2-3-2-------------------------------|
 B--7h5-------7-7----------7--------------3-2-3-2----------------------|
 G-------6^7--7-7-7h6------7----------------------------2-2h0------0---|
 D---------------------7--------------------------------------4--------|
 A---------------------------------------------------------------------|
 E---------------------------------------------------------------------|
 E--------------------------------3h0----------------------------------|
 B--------0-1^2-------------------------------------3h2-3--------------|
 G--2-4-----------------0h2------------------0h2-----------------------|
 D----------------2h4------------------2h4-----------------------------|
 A---------------------------------------------------------------------|
 E---------------------------------------------------------------------|
 E-------------9^12-9-12-17--------------------------------------------|
 B---5h7h8---------------------17-15-----------------------------------|
 G---------------------------------------------------------------------|
 D---------------------------------------------------------------------|
 A---------------------------------------------------------------------|
 E---------------------------------------------------------------------|

[D] So many thorns [G]wrapped around your [A]ankles
[D] Pretty gold that is [G]taken by the b[A]anker
[D] But I believe in a [G]sweeter than sens[A]ation
[D] An open path [G]cannot choke you with tempt[A]ation
[D] One world with[G]in[A]
[D] One heart is [G]beating still tod[A]ay
[D] An open [G]road[A]
[D] One love can [G]carry you aw[A]ay
Funk/raggae beat here...
[D] One world with[G]in[A]
[D] Afraid of the [G]cold[A]
[D] Unlock the [G]doors in ang[A]er
[D] With the keys you [G]hold[A]
[D] One world with[G]in[A]
[D] Afraid to be [G]so co‚[A]?¶old
[D] Thorns a[G]round your ank[A]le
[D] Makes you bleed and [G]bleed and bleed in [A]gold
back to regular beat...
[D] One world with[G]i[A]
[D] One heart is [G]beating still tod[A]ay
[D] An open [G]road [A]
[D] One love can [G]carry you aw[A]ay
D G A x4
^ - Slide up or down
h - hammer up or pull off going down
The lead should be pretty close‚?¶if you hear it differently, please let me know.
Enjoy! Rock on Freddy!

Important: The song above is NOT stored on the Chordie server. The original song is hosted at www.azchords.com. Chordie works as a search engine and provides on-the-fly formatting. Chordie does not index songs against artists'/composers' will. To remove this song please click here.

Text color:
Chord color:
Chord grids: 
Font size:    
Page size: 

A D G
Rate #2 of 2 versions

Jango Player

Login - add to songbook

SHARE PAGE  



You need to log in to post comments