Guitar Tabs, Chords and Lyrics
Server problems seems to be fixed. Chordie has been experiencing problems with songs disappearing. These issues now seems to be fixed, but still verifying the fix. If you find anything strange, please email admin@chordie.com.


Be My Friend  Free

Gtr I (E A D G B E) - 'Paul Kossoff - Electric Guitar'
Gtr II (E A D G B E) - 'Paul Kossoff - Electric Guitar'
Intro
Q=64
[Bbm] [Db/Eb7suEb/Bb] [Bbm7] [Eb/G] 
[4/4] Gtr I
a Q Q Q Q W a E. S S S S S S S S S S S e
 
 |---------------|-----------|------------------6---------------|
 |---------------|-^8--------|------------------6-------8--8--8-|
 |---6--6--6--6--|-^8--------|---6--6-6-------6---------8--8--8-|
 |-6h8--6--6--6--|-^8--------|-6h8--8-8p6-6-6-6---------8--8--8-|
 |---------8--6--|-^6--------|--------------------8s10-10-10-10-|
 |---------------|-^6--------|----------------------------------|

[Bbm7]a E. S S S S S S S S [Eb/G] S S S e
 
 |------------------6---------------|
 |------------------6-------8--8--8-|
 |---6--6-6-------6---------8--8--8-|
 |-6h8--8-8p6-6-6-6---------8--8--8-|
 |--------------------8s10-10-10-10-|
 |----------------------------------|

[Bbm7]a E. S S S S S S S S [Eb/G] S S S e [Bbm7]a E. S S S S S S S S [Eb/G] S E e
 
 |------------------6---------------|------------------6--------------||
 |------------------6-------8--8--8-|------------------6--------------||
 |---6--6-6-------6---------8--8--8-|---6--6-6-------6---------8--8---||
 |-6h8--8-8p6-6-6-6---------8--8--8-|-6h8--8-8p6-6-6-6---------8--8---||
 |--------------------8s10-10-10-10-|--------------------8s10-10-10---||
 |----------------------------------|---------------------------------||

1st - 3rd Verses
$
Bbm7 Eb/G N.C. Bb5
a E. S S S S S S S S S E e S S S S S S S S S S Q.
 
 ||-------------------6------------|----------------------------------|
 ||o------------------6------------|----------------------------------|
 ||----6--6-6-------6---------8--8-|----------------------------------|
 ||--6h8--8-8p6-6-6-6---------8--8-|----------------------------------|
 ||o--------------------8s10-10-10-|-11s13-13-13-13s11----11S8-8-8----|
 ||--------------------------------|-11s13-13-13-13s11-11------6-6----|

N.C.
S S S S S S S S S S S S S S E
 
 |-------------------------------------------------------|
 |-------------------------------------------------------|
 |-------------------------------------------------------|
 |-13-(13)-13-13-13-(13)-------13-(13)----13-(13)--------|
 |-13h=15--15-15-15h=16--16-16-16p=15-----15p=13--13-----|
 |-------------------------------------16------------16--|

~~~
S S E S S S S S S Q.
 
 |----------------------------------|
 |----------------------------------|
 |----------------------------------|
 |----------------------------------|
 |-11s13-13-13s11-11-11-11s13-13----|
 |-11s13-13-13s11-11-11-11s13-13----|

Bbm7 Eb/G N.C. Bb5
a E. S S S S S S S S S S S e S S S S S S S S S S Q.
 
 |------------------6---------------|-----------------------------------|
 |------------------6-------8--8--8-|-----------------------------------|
 |---6--6-6-------6---------8--8--8-|-----------------------------------|
 |-6h8--8-8p6-6-6-6---------8--8--8-|-----------------------------------|
 |--------------------8s10-10-10-10-|-11s13-13-13-13s11----11S8-8-8-----|
 |----------------------------------|-11s13-13-13-13s11-11------6-6-----|

1.
N.C. BbmBbmDb/Eb7suEb/Bb
S S S S S S S S S S S S S S E Q Q Q Q W
 
 |------------------------------------------------------|-------------|--------||
 |------------------------------------------------------|-------------|-^8----o||
 |------------------------------------------------------|-6--6--6--6--|-^8-----||
 |-13-(13)-13-13-13-(13)-------13-(13)----13-(13)-------|-8--6--6--6--|-^8-----||
 |-13h=15--15-15-15h=16--16-16-16p=15-----15p=13--13----|-------8--6--|-^6----o||
 |-------------------------------------16------------16-|-------------|-^6-----||

2.,D.S.
N.C. Bb5
S S S S S S S S S S Q.
 
 |----------------------------------||
 |----------------------------------||
 |----------------------------------||
 |----------------------------------||
 |-11s13-13-13-13s11----11S8-8-8----||
 |-11s13-13-13-13s11-11------6-6----||

Chorus
[Bbm]H E. S e E +H E. S e [Eb7]E +Q Q [Gb5]H
 
 |---------------|-----------------|--------------|
 |-6-------------|-----------------|--------------|
 |-6----6--6-6-6-|-(6)----6--6-6-6-|-(6)--6--6----|
 |-8----8--8-8-6-|-(6)----6--6-6-5-|-(5)--5--4----|
 |---------------|---------------6-|-(6)--6-------|
 |---------------|-----------------|--------------|

N.C.
S S S S Q Q +S S e
 
 |--------------------------------|
 |--------------------------------|
 |--------------------------------|
 |--------------------------------|
 |-11s13-13-13-13--11--(11)-11-11-|
 |-11s13-13-13-13--11--(11)-11-11-|

To Coda
[Bbm]H E. S e E +H E. S e [Eb7]E +Q Q [Gb5]H
 
 |---------------|-----------------|--------------|
 |-6-------------|-----------------|--------------|
 |-6----6--6-6-6-|-(6)----6--6-6-6-|-(6)--6--6----|
 |-8----8--8-8-6-|-(6)----6--6-6-5-|-(5)--5--4----|
 |---------------|---------------6-|-(6)--6-------|
 |---------------|-----------------|--------------|

[Bbm7]a E. S S S S S S S S [Eb/G] S S S e
 
 |------------------6---------------|
 |------------------6-------8--8--8-|
 |---6--6-6-------6---------8--8--8-|
 |-6h8--8-8p6-6-6-6---------8--8--8-|
 |--------------------8s10-10-10-10-|
 |----------------------------------|

[Bbm7]a E. S S S S S S S S [Eb/G] S S S e [Bbm7]a E. S S S S S S S S [Eb/G] S S S e
 
 |------------------6---------------|------------------6----------------|
 |------------------6-------8--8--8-|------------------6-------8--8--8--|
 |---6--6-6-------6---------8--8--8-|---6--6-6-------6---------8--8--8--|
 |-6h8--8-8p6-6-6-6---------8--8--8-|-6h8--8-8p6-6-6-6---------8--8--8--|
 |--------------------8s10-10-10-10-|--------------------8s10-10-10-10--|
 |----------------------------------|-----------------------------------|

D.S. al Coda &
[Bbm7]a E. S S S S S S S S [Eb/G] S S S e
 
 |------------------6----------------||
 |------------------6-------8--8--8--||
 |---6--6-6-------6---------8--8--8--||
 |-6h8--8-8p6-6-6-6---------8--8--8--||
 |--------------------8s10-10-10-10--||
 |-----------------------------------||

Chorus
[BbmBbmDb/Eb7sus4Bbm]Q Q Q Q H Q e E +H Q E [Eb7]E
 
 |-------------||--------------|---------------|
 |-------------||o-------------|-----------6---|
 |-6--6--6--6--||--6----6--6-6-|-(6)----6--6-6-|
 |-8--6--6--6--||--8----8--8-6-|-(6)----6--6-5-|
 |-------8--6--||o-------------|-------------6-|
 |-------------||--------------|---------------|

1.,2. 2.
+H [Gb5]Q Q a [Bbm]H [Ab]H 3x a [Bbm]H [Ab]H
 
 |--------------|--------------||-------------------------------||
 |--------------|-------------o||-------------------------------||
 |-(6)----6--6--|---6----5-----||---6----5----------------------||
 |-(5)----4--4--|-6h8----6-----||-6h8----6----------------------||
 |-(6)----------|-------------o||-------------------------------||
 |--------------|--------------||-------------------------------||

|
| Gtr II
| W W 3x H S E +S S S +E
 
 |--------------|--------------||-------------------------------||
 |--------------|-------------o||-------------------------------||
 |--------------|--------------||----------8b10r(8)-6-8b10==(8)-||
 |--------------|--------------||-------------------------------||
 |--------------|-------------o||-------------------------------||
 |--------------|--------------||-------------------------------||

Outro
[Bbm] H Q E [Bbm/Ab]E +Q Q S S S S e [Eb7]E
 
 |------------------------|----------------------------|
 |--6------6--6-6---------|-(6)-------6----6-6-6-6-6---|
 |--6------6--6-6---------|-(6)-------6----6-6-6-6-6-6-|
 |--8------8--8-6---------|-(6)-------6----6-6-6-6-6-5-|
 |------------------------|--------------------------6-|
 |------------------------|----------------------------|

|
| ~~~~ ~~~~~~~~~~
| +H. E S +S S E. +H.
 
 |------------------------|----------------------------|
 |------------------------|----------------------------|
 |-(8)r---------8pb10r(8)p|==6--6b8==(6)r--------------|
 |------------------------|----------------------------|
 |------------------------|----------------------------|
 |------------------------|----------------------------|

[Gb5] [Bbm] [Ab] 
[+B] [B] [B] [B]  
 
 |--------------------------------|-----------|
 |--------------------------------|-6---------|
 |-(6)----------------6-----------|-6----5----|
 |-(5)----------------4-----------|-8----6----|
 |-(6)----------------------------|-----------|
 |--------------------------------|-----------|

|
| ~~~~~~~~~~~~ ~
| E E +S +E. +Q +S S e W
 
 |--------------------------------|-----------|
 |--------------------------------|-----------|
 |-----8b10==(8)r(8)-(8)--(8)-6-5-|-----------|
 |--------------------------------|-8---------|
 |--------------------------------|-----------|
 |--------------------------------|-----------|

[Bbm] W [Bbm/Ab] H. e E [Eb7] H [Gb5]H [Bbm]W
 
 |------------|--------------|-------------|-------------------------------|
 |--6---------|--6-------6---|-------------|-6-----------------------------|
 |--6---------|--6-------6---|--6-----6----|-6-----------------------------|
 |--8---------|--6-------6---|--5-----4----|-8-----------------------------|
 |------------|--------------|--6----------|-------------------------------|
 |------------|--------------|-------------|-6-----------------------------|

|
| ~~~~~~~~~~~~~~~~~~~~~~~~~~~~~~~ ~~
| +W +W +W S S S S S E. S S S S S S S S
 
 |------------|--------------|-------------|-------------------------------|
 |------------|--------------|-------------|-------------------------------|
 |------------|--------------|-------------|---6p5----------6p5-------6p5--|
 |-(8)--------|-(8)----------|-(8)---------|-------8-6-8--------8-6-8------|
 |------------|--------------|-------------|-------------------------------|
 |------------|--------------|-------------|-------------------------------|

H Q Q [Eb] H H
 
 |------------|--------------------------------|
 |-6----6--6--|--8---------8-------------------|
 |-6----6--6--|--8---------8-------------------|
 |-8----8--8--|--8---------8-------------------|
 |------------|-10--------10-------------------|
 |-6----6--6--|--------------------------------|

|
| ~~~~~~~~~~~~~~~~~~ ~~~
| W +E E Q S S S +S S S E
 
 |------------|--------------------------------|
 |------------|--------------------------------|
 |------------|--------------8-8pb10r(8)-6-8---|
 |-8----------|-(8)\-------------------------8-|
 |------------|--------------------------------|
 |------------|--------------------------------|

[Bbm] Q Q Q Q [Eb] H H
 
 |-----------------------------|----------------|
 |--6---6--6-------------6-----|--8------8------|
 |--6---6--6-------------6-----|--8------8------|
 |--8---8--8-------------8-----|--8------8------|
 |-----------------------------|-10-----10------|
 |--6---6--6-------------6-----|----------------|

|
|~~~~~ ~~~
| +H S S S +S S S E +H. Q
 
 |-----------------------------|----------------|
 |-----------------------------|----------------|
 |---------8b10==8-8r(8)-6-8---|----------------|
 |-(8)-----------------------8-|-(8)------------|
 |-----------------------------|----------------|
 |-----------------------------|----------------|

[Bbm]Q Q Q Q [Eb] Q Q Q Q
 
 |-----------------------------------------|-------------------------------|
 |-6---------------6------6-----------6----|--8------8-------8--------8----|
 |-6---------------6------6-----------6----|--8------8-------8--------8----|
 |-8---------------8------8-----------8----|--8------8-------8--------8----|
 |-----------------------------------------|-10-----10------10-------10----|
 |-6---------------6------6-----------6----|-------------------------------|

|
| ~~~~~~ ~~ ~~~~~~
 
 | |---3----|

| S S +S +S S S E +E E +E S E. E S S +E S S S S S S S E.
 
 |-----------------------------------------|-------------------------------|
 |-----------------------------------------|-------------------------------|
 |-6-8b10==(8)r(8)p6-8-------8b10r(8)-6-8--|--8-6-8-(8)-6p5----8p6p5h=6p5--|
 |---------------------8-(8)---------------|-----------------x-------------|
 |-----------------------------------------|-------------------------------|
 |-----------------------------------------|-------------------------------|

[Bbm]Q Q Q Q [Eb] H H
 
 |-----------------------------|-------------------------------|
 |-6---6----------6--6---------|--8--------------8-------------|
 |-6---6----------6--6---------|--8--------------8-------------|
 |-8---8----------8--8---------|--8--------------8-------------|
 |-----------------------------|-10-------------10-------------|
 |-6---6----------6--6---------|-------------------------------|

|
| ~ ~ ~~~~~~ ~~~~~~~ ~~~~~~
| Q +S T T S S Q T T S S S E S S +E S S +S S S S +Q
 
 |-----------------------------|-------------------------------|
 |-----------------------------|-------------------------------|
 |--------6p5--------6p5-------|--6p5-6-(6)-5-6-(6)p5-6s8-(8)--|
 |-8--(8)-----8-6-8------8-6-8-|-------------------------------|
 |-----------------------------|-------------------------------|
 |-----------------------------|-------------------------------|

[Bbm] [Eb]  
[B] [B] [B] [B]  
 
 |---------------------|---------------------------------------|
 |-6---------6---------|--8-----------------8------------------|
 |-6---------6---------|--8-----------------8------------------|
 |-8---------8---------|--8-----------------8------------------|
 |---------------------|-10----------------10------------------|
 |-6---------6---------|---------------------------------------|

|
| ~~~~~~~~~~~~~~~~ ~~~~~~~~~~~~~~~~ ~~~~~~~~~~~~
| S S Q. +Q. +E S S S S +Q +S S S S +Q
 
 |---------------------|----6-9-----------------6-9------------|
 |---------------------|---------------------------------------|
 |-6-8-----------------|--------8b10==(8)--(8)r-----8b10==(8)--|
 |-----8----(8)---(8)/-|---------------------------------------|
 |---------------------|---------------------------------------|
 |---------------------|---------------------------------------|

[Bbm] [Eb]  
[B] [B] [B] [B]  
 
 |-----------------------------|------------------------------------------|
 |--6------6-------------------|--8-------------------8-------------------|
 |--6------6-------------------|--8-------------------8-------------------|
 |--8------8-------------------|--8-------------------8-------------------|
 |-----------------------------|-10------------------10-------------------|
 |--6------6-------------------|------------------------------------------|

|
|~~~~~~ ~~~~~~
| +H S S S S S S S S S S S S +S S E +S S E +S T T E
 
 |-----------------------------|------------------------------------------|
 |-----------11-11p9---11-11p9-|----11-11p9-(9)---------------------------|
 |-(8)r------------------------|----------------10s8-(8)-6p5-(5)-5h6-5----|
 |-----------------------------|------------------------------------------|
 |-----------------------------|------------------------------------------|
 |-----------------------------|------------------------------------------|

[Bbm] [Eb]  
[B] [B] [B] [B]  
 
 |-----------|----------------------|
 |-6----6----|--8--------8----------|
 |-6----6----|--8--------8----------|
 |-8----8----|--8--------8----------|
 |-----------|-10-------10----------|
 |-6----6----|----------------------|

|
| ~~~~~~~~~~~~~~~~~~~~~~~~~~~~~~
| W +Q H +E S S
 
 |-----------|----------------------|
 |-----------|----------------------|
 |-----------|------/8------(8)s6s8-|
 |-8---------|-(8)------------------|
 |-----------|----------------------|
 |-----------|----------------------|

[Bbm] [Eb]  
[B] [B] [B] [B]  
 
 |--------------|------------------------------|
 |-6-----6------|---8--------------------8-----|
 |-6-----6------|---8--------------------8-----|
 |-8-----8------|---8--------------------8-----|
 |--------------|--10-------------------10-----|
 |-6-----6------|------------------------------|

|
| ~~~~~~~~~~~~~~~~~~~~ ~~~~~~~
| H. Q +S S S S E S S +H
 
 |--------------|------------------------------|
 |----------11--|-(11)-9-11-11-11-9-11-(11)----|
 |--------------|------------------------------|
 |-8------------|------------------------------|
 |--------------|------------------------------|
 |--------------|------------------------------|

[Bbm] [Eb] 
[E] [E] [E] [E] [E] [E] [E] [E] [E] [E] [E] [E] [E] [E] [E] [E]  
 
 |------------------------------------|--------------------------------------|
 |-6---6---6-------------6------------|---8-----------------8-------8----8---|
 |-6---6---6-------------6------------|---8-----------------8-------8----8---|
 |-8---8---8-------------8------------|---8-----------------8-------8----8---|
 |------------------------------------|--10----------------10------10---10---|
 |-6---6---6-------------6------------|--------------------------------------|

|
| H E S S +E S S +S S S +S S E. E E Q
 
 |-----------16--------------16-------|------16------------------------------|
 |--------------16b18==(16)r----16b18-|-(16)----16b18r(16)-14-16p==14--------|
 |------------------------------------|--------------------------------------|
 |------------------------------------|--------------------------------------|
 |------------------------------------|--------------------------------------|
 |------------------------------------|--------------------------------------|

[Bbm]  
[E] [E] [E] [E] [E] [E] [E] [E]  
 
 |------------------------------------------|
 |-6--------6-----------6----------6--------|
 |-6--------6-----------6----------6--------|
 |-8--------8-----------8----------8--------|
 |------------------------------------------|
 |-6--------6-----------6----------6--------|

|
| E. S S S S S S S S S S S E
 
 |------------------------------------------|
 |------16-16s18-18-18s16-16-16p14---14p13--|
 |------------------------------------------|
 |------------------------------------------|
 |------------------------------------------|
 |------------------------------------------|

[Eb] [Bbm] 
[E] [E] [E] [E] [E] [E] [E] [E] [E] [E] [E] [E] [E] [E] [E] [E]  
 
 |---------------------------------------------|-----------------------------------------|
 |--8---------8--------8--------8--------------|---6----6-----6------------------6-------|
 |--8---------8--------8--------8--------------|---6----6-----6------------------6-------|
 |--8---------8--------8--------8--------------|---8----8-----8------------------8-------|
 |-10--------10-------10-------10--------------|-----------------------------------------|
 |---------------------------------------------|---6----6-----6------------------6-------|

|
| ~~~~~~~~~~ ~~~~~~~~~~~~~~~~~~~~~~~~~ ~~~~~~~~~
| S E. +S S E E. S E S S +H +S S +S S Q
 
 |--------------------------16-------16--------|-----------------------------16----------|
 |-14-13----(13)-14------------16b18----16b18==|=(16)-------(16)r-16b18-(16)----16b18====|
 |---------------------------------------------|-----------------------------------------|
 |---------------------------------------------|-----------------------------------------|
 |---------------------------------------------|-----------------------------------------|
 |---------------------------------------------|-----------------------------------------|

[Eb]  
[E] [E] [E] [E] [E] [E] [E] [E]  
 
 |-------------------------------------------------*|
 |---8------8------------------8-------------8-----*|
 |---8------8------------------8-------------8-----*|
 |---8------8------------------8-------------8-----*|
 |--10-----10-----------------10------------10-----*|
 |-------------------------------------------------*|

|
|~~~~~~~ ~~~~~~~~~~~~~~~
| +Q T +T E S S E. +Q
 
 |----------------------------16-16pb18====(16)r---*|
 |-(16)r---16b18r(16)-14---------------------------*|
 |-------------------------15----------------------*|
 |-------------------------------------------------*|
 |-------------------------------------------------*|
 |-------------------------------------------------*|


Important: The song above is NOT stored on the Chordie server. The original song is hosted at www.azchords.com. Chordie works as a search engine and provides on-the-fly formatting. Chordie does not index songs against artists'/composers' will. To remove this song please click here.

Text color:
Chord color:
Chord grids: 
Font size:    
Page size: 

Ab B Bbm Bbm/Ab Bbm7 E Eb Eb/G Eb7 Gb5
Rate #1 of 6 versions

Jango Player

Login - add to songbook

SHARE PAGE  




You need to log in to post comments