Guitar Tabs, Chords and Lyrics
Server problems seems to be fixed. Chordie has been experiencing problems with songs disappearing. These issues now seems to be fixed, but still verifying the fix. If you find anything strange, please email admin@chordie.com.


Don't Say You Love Me  Free

Gtr I (E A D G B E) - 'Paul Kossoff - Electreic Guitar 1'
Gtr II (E A D G B E) - 'Paul Kossoff - Electric Guitar 2'
Intro
E=114
1[Emaj7]2/8[Dmaj7/E]
Gtr I
E E E E E E E E E E E E E E E E E E E E E Q e
 
 |-----------4-----------4-|-----------2------------||
 |---------4-----------4---|---------2--------------||
 |-------4-----------4-----|-------2-----------2--2-||
 |-----6-----------6-------|-----4-----------4------||
 |---7-----------7---------|---5-----------5------4-||
 |-0-----------0-----------|-0-----------0----------||

1st & 2nd Verses
[Emaj7] Q. Q. Q. Q.
 
 ||--^4----^4----^4----^4----|
 ||o-^4----^4----^4----^4----|
 ||--^4----^4----^4----^4----|
 ||--^6----^6----^6----^6----|
 ||o-^7----^7----^7----^7----|
 ||--------------------------|

Q. Q. Q. Q. [Dmaj7] Q. Q. Q. Q.
 
 |-^4----^4----^4----^4----|-^2----^2----^2----^2-----|
 |-^4----^4----^4----^4----|-^2----^2----^2----^2-----|
 |-^4----^4----^4----^4----|-^2----^2----^2----^2-----|
 |-^6----^6----^6----^6----|-^4----^4----^4----^4-----|
 |-^7----^7----^7----^7----|-^5----^5----^5----^5-----|
 |-------------------------|--------------------------|

Q. Q. Q. Q. [Emaj7] Q. Q. Q. Q. Q. Q. Q. Q.
 
 |-^2----^2----^2----^2----|-^4----^4----^4----^4----|-^4----^4----^4----^4----|
 |-^2----^2----^2----^2----|-^4----^4----^4----^4----|-^4----^4----^4----^4----|
 |-^2----^2----^2----^2----|-^4----^4----^4----^4----|-^4----^4----^4----^4----|
 |-^4----^4----^4----^4----|-^6----^6----^6----^6----|-^6----^6----^6----^6----|
 |-^5----^5----^5----^5----|-^7----^7----^7----^7----|-^7----^7----^7----^7----|
 |-------------------------|-------------------------|-------------------------|

Pre-Chorus
[Dmaj7] Q. Q. Q. Q. Q. Q. Q. Q. [Amaj7] H. [G#m] H.
 
 |-^2----^2----^2----^2----|-^2----^2----^2----^2----||-^0-------^4-----|
 |-^2----^2----^2----^2----|-^2----^2----^2----^2----||-^5-------^4-----|
 |-^2----^2----^2----^2----|-^2----^2----^2----^2----||-^6-------^4-----|
 |-^4----^4----^4----^4----|-^4----^4----^4----^4----||-^6-------^6-----|
 |-^5----^5----^5----^5----|-^5----^5----^5----^5----||----------^6-----|
 |-------------------------|-------------------------||-^5-------^4-----|

Chorus
[F#m] H. [E] H. [E]Q. Q. [A/E]Q. Q E [E]Q. Q. [A/E]Q. Q E
 
 |-^2-------^0-------||-0----0---------------|-0----0---------------|
 |-^2-------^0-------||-0----0----2----2--2\-|-0----0----2----2--2\-|
 |-^2-------^1-------||-1----1----2----2--2\-|-1----1----2----2--2\-|
 |-^4-------^2-------||-2----2----2----2--2\-|-2----2----2----2--2\-|
 |-^4-------^2-------||-2----2----4----4--4\-|-2----2----4----4--4\-|
 |-^2-------^0-------||-0----0----0----0--0--|-0----0----0----0--0--|

1. 2.
[E]Q. Q. [A/E]Q. Q. [A/C#]Q. Q E [E5]Q. [A/E]Q. Q. +E. S E H.
 
 |-0----0--------------|----------------------||--------------------||
 |-0----0----2----2----|----------------2----o||-2----(2)-x---------||
 |-1----1----2----2----|-2----2---------2-----||-2----(2)-x---------||
 |-2----2----2----2----|-2----2---------2-----||-2----(2)-x---------||
 |-2----2----4----4----|-4----4----2----4----o||-4----(4)-x---2-----||
 |-0----0----0----0----|---------3-0----0-----||-0----(0)-x-3-0-----||

Bridge
[D]Q. [Dmaj7D6]Q. Q. [D]Q. [E5]Q +S S [A/E]S S S S E a [E]Q +S S S S E E
 
 |---------------------|----------------------------------------|
 |-3----2--------------|----------------------------------------|
 |-2----2----4----2----|--------------2-----0h1--(1)------------|
 |-4----4----4----4----|-2--(2)-----2---2-----2--(2)------------|
 |-5----5----5----5----|-2--(2)-2s4-------4---2--(2)-2s4s2------|
 |---------------------|-0--(0)---------------0--(0)-------0----|

[D]Q. [Dmaj7D6]Q. Q. [D]Q. [E5]Q +S S [A/E]S S S S E a [E]Q +S S S S E E
 
 |---------------------|----------------------------------------|
 |-3----2--------------|----------------------------------------|
 |-2----2----4----2----|--------------2-----0h1--(1)------------|
 |-4----4----4----4----|-2--(2)-----2---2-----2--(2)------------|
 |-5----5----5----5----|-2--(2)-2s4-------4---2--(2)-2s4s2------|
 |---------------------|-0--(0)---------------0--(0)-------0----|

[D]Q. [Dmaj7D6]Q. Q. [D]Q. [E]Q. +S S [A/E]S S E [E5]Q. +E Q [G#m]H. [C#m] H.
 
 |---------------------|------------------------------|-4--------9-----|
 |-3----2--------------|-0----(0)---------------------|-4--------9-----|
 |-2----2----4----2----|-1----(1)-------2-------------|-4--------9-----|
 |-4----4----4----4----|-2----(2)-----2---------------|-6-------11-----|
 |-5----5----5----5----|-2----(2)-2s4-----2----(2)----|-6-------11-----|
 |---------------------|-0----(0)---------0----(0)----|-4--------9-----|

[A/E]Q. Q E Q E E E E
 
 |--------------------------||
 |-2----2-------------------||
 |-2----2--2------2-2-------||
 |-2----2--2------2-2-------||
 |-4----4--4-4----4-4-------||
 |-----------5--5-5-5-3b3.5-||

|
| Gtr II
| W
 
 |--------------------------||
 |--------------------------||
 |--------------------------||
 |--------------------------||
 |--------------------------||
 |--------------------------||

Chorus
a [E] Q. Q E [A/E] Q. Q e [E]Q. E. S E [A/E]Q. E. S E
 
 |---------0----------------|------0-------------------|
 |---------0-----2----2-----|------0------2----2-------|
 |-0h=1----1-----2----2---2-|------1------2----2--2-2--|
 |----2----2-----2----2---2-|------2------2----2--2-2--|
 |----2----2-----4----4---4-|-2----2------4----4--4-4--|
 |----0----0--0--0----0-----|-0----0--0-0-0----0----0--|

|
| ~~~~~~~~~~~~~~
| H. +Q. Q. W
 
 |--------------------------|--------------------------|
 |--------------------------|--------------------------|
 |---/9---------(9)---------|--------------------------|
 |--------------------------|--------------------------|
 |--------------------------|--------------------------|
 |--------------------------|--------------------------|

[E]Q. Q E [A/E]Q. Q. [A] Q. E. S E [E]Q E Q.
 
 |------0-----------------|---------------------------0-----|
 |------0----2----2-------|---2-----2-----------------0-----|
 |-1----1----2----2-------|---2-----2-----------------1-----|
 |-2---------2----2-------|---2-----2-----------------2-----|
 |-2---------4----4-------|---4-----4-----------------------|
 |-0-------0-0----0-------|---5-----5--5-3b3.5-0---0--------|

|
| ~~~~~~~~~~~~~~~~~~~~~~~~~~~
| H. Q. Q S S Q. Q. Q. +E Q
 
 |------------------------|---------------------------------|
 |------------------------|---------------------------------|
 |------------------------|---------------------------------|
 |----------------------9-|-/11----11----------9-----(9)----|
 |------------------------|---------------------------------|
 |------------------------|---------------------------------|

Q. E. S E [A/E] Q. E S S E
 
 |--0--------------------------|
 |--0----0-------2----2--------|
 |--1----1-------2----2--------|
 |--2----2-------2----2--------|
 |--2--------------------------|
 |--0-------0-0----------0-0-0-|

|
| ~~~~~~~~~~~~~~~~
| H. +Q. Q.
 
 |-----------------------------|
 |-----------------------------|
 |-/9-----------(9)------------|
 |-----------------------------|
 |-----------------------------|
 |-----------------------------|

[E] Q. Q. [A/E] Q. E E E [E]Q S S Q E [A/E]Q +S S E. S E
 
 |--0----0-----------------|------------0---------------------|
 |--0----0-----2----2----2-|------------0-----2--(2)---2------|
 |--1----1-----2----2----2-|-1----------1-----2--(2)---2------|
 |--2----2-----2----2----2-|-2----------2-----2--(2)---2------|
 |--2----2-----4----4----x-|-2----------2-----4--(4)---4------|
 |--0----0-----0----0--0-0-|-0----0-0---0---0-0--(0)-0----0-0-|

|
| ~~~~~~~~~~~~~~ ~~~~~~~~~~~
| H. +Q. Q. E Q +H. Q.
 
 |-------------------------|----------------------------------|
 |-------------------------|---12-----(12)--------------------|
 |-/9---------(9)----------|----------------------------------|
 |-------------------------|----------------------------------|
 |-------------------------|----------------------------------|
 |-------------------------|----------------------------------|

[A]Q S S E E S S [E] E S S S S E E E
 
 |----------------------------------------------0-------0-------------|
 |-2-------2------------------------------------0-------0-------------|
 |-2-------2------------1-----------------------1-------1-------------|
 |-2-------2------------2-----------------------2---------------------|
 |-4---0-0-4-0----------2---------------2----2--2---------------------|
 |-5-------5---3b3.5p0--0-------0----0--0----0--0------------0--------|

|
| H. S S S S S S S S E. +S
 
 |---------------------------7-------7-------7-------7----------------|
 |---------------------10b12---10b12---10b12---10b12---10b12r==(10)---|
 |--------------------------------------------------------------------|
 |--------------------------------------------------------------------|
 |--------------------------------------------------------------------|
 |--------------------------------------------------------------------|

Outro
[E]Q. E. S E [A/E]Q. E S S E [E] Q. Q E [A/E]Q +S S Q E
 
 |-0----0-------------------||---0--------0-------------------------|
 |-0----0------2----2-------||o--0--------0----------2---(2)-2-2----|
 |-1----1------2----2-------||---1--------1----------2---(2)-2-2----|
 |-2----2------2----2-------||---2--------2----------2---(2)-2-2----|
 |-2----2------4----4-------||o--2--------2----------4---(4)-4-4----|
 |-0----0--0-0-0----0-0-0-0-||---0--------0---0------0---(0)-0-0--0-|

|
| ~~
| W Q. Q S +S H.
 
 |--------------------------||-----------12-------------------------|
 |--------------------------||o-------------------------------------|
 |--------------------------||--11b13========11r(11)-9--------------|
 |--------------------------||--------------------------------------|
 |--------------------------||o-------------------------------------|
 |--------------------------||--------------------------------------|

[E] Q. Q E [A/E]Q E Q E
 
 |--0--------0---------------------|
 |--0--------0----------2-----2--2-|
 |--1--------1----------2-----2--2-|
 |--2--------2----------2-----2--2-|
 |--2--------2----------4-----4--4-|
 |--0--------0---0------0---0-0--0-|

|
| ~~
| Q. Q S +S H.
 
 |----------12---------------------|
 |---------------------------------|
 |-11b13========11r(11)-9----------|
 |---------------------------------|
 |---------------------------------|
 |---------------------------------|

[E] Q. Q E [A/E]Q E E. S E
 
 |--0--------0-----------------------|
 |--0--------0----------2-----2------|
 |--1--------1----------2-----2------|
 |--2--------2----------2-----2------|
 |--2--------2----------4-----4------|
 |--0--------0---0------0---0-0--0-0-|

|
| ~~
| Q. Q S +S H.
 
 |----------12-----------------------|
 |-----------------------------------|
 |-11b13========11r(11)-9------------|
 |-----------------------------------|
 |-----------------------------------|
 |-----------------------------------|

[E] Q S S Q E [A/E]E. S S S E. S E
 
 |--0-----------0---------------------------||
 |--0-----------0----------2--------2------o||
 |--1-----------1----------2--------2-------||
 |--2-----------2----------2--------2-------||
 |--2------2-2--2----------4--------4------o||
 |--0------0-0--0---0------0--0-0-0-0--0-0--||

|
| ~~
| Q. Q S +S H.
 
 |-------------12---------------------------||
 |-----------------------------------------o||
 |-11b13===========11r(11)-9----------------||
 |------------------------------------------||
 |-----------------------------------------o||
 |------------------------------------------||


Important: The song above is NOT stored on the Chordie server. The original song is hosted at www.azchords.com. Chordie works as a search engine and provides on-the-fly formatting. Chordie does not index songs against artists'/composers' will. To remove this song please click here.

Text color:
Chord color:
Chord grids: 
Font size:    
Page size: 

A A/C# A/E Amaj7 C#m D Dmaj7 Dmaj7/E E E5 Emaj7 F#m G#m
Rate #1 of 1 versions

Login - add to songbook

SHARE PAGE  



You need to log in to post comments