Guitar Tabs, Chords and Lyrics
Server problems seems to be fixed. Chordie has been experiencing problems with songs disappearing. These issues now seems to be fixed, but still verifying the fix. If you find anything strange, please email admin@chordie.com.


Soon I Will Be Gone  Free

Gtr I (E A D G B E) - 'Paul Rodgers - Acoustic 12-string Guitar'
Gtr II (E A D G B E) - 'Paul Kossoff - Electric Guitar'
Gtr III (E A D G B E) - 'Paul Kossoff - Electric Guitar'
Intro
E=152
6[Em]/8[G5D/F#Em] [G5D/F#Em] [G5D/F#Em] [G5D/F#]
Gtr I (Ac. 12-string Gtr.)
Q. E E E Q. E E E Q. E E E Q. E E E
 
 |-0----0-----|-0----0-----|-0----0-----|-0----0-----||
 |-0----0-3-3-|-0----0-3-3-|-0----0-3-3-|-0----0-3-3-||
 |-0----0-0-2-|-0----0-0-2-|-0----0-0-2-|-0----0-0-2-||
 |-2----2-0-0-|-2----2-0-0-|-2----2-0-0-|-2----2-0-0-||
 |-2----2-----|-2----2-----|-2----2-----|-2----2-----||
 |-0----0-3-2-|-0----0-3-2-|-0----0-3-2-|-0----0-3-2-||

1st Verse
[Em]Q E Q E [G]Q E [A]Q [E5]E Q [Em]E E [G5D/F#Em]E E Q. E [G5D/F#]E E
 
 |-0--0-0--0-|-3--3-0----|----0-0-----|-0----0-----|
 |-0--0-0--0-|-0--0-2----|----0-0-3-3-|-0----0-3-3-|
 |-0--0-0--0-|-0--0-2----|----0-0-0-2-|-0----0-0-2-|
 |-2--2-2--2-|-0--0-2----|----2-2-0-0-|-2----2-0-0-|
 |-2--2-2--2-|-2--2-0--2-|-2--2-2-----|-2----2-----|
 |-0--0-0--0-|-3--3----0-|-0--0-0-3-2-|-0----0-3-2-|

[Em]Q E Q E [G]Q E [A]Q [E5]E E E E E [G5D/F#Em]E E Q E Q E
 
 |-0----0--0-|-3--3-0----|-------------|-0--0-0--0-|
 |-0----0--0-|-0--0-2----|---------3-3-|-0--0-0--0-|
 |-0----0--0-|-0--0-2----|---------0-2-|-0--0-0--0-|
 |-2----2--2-|-0--0-2----|---------0-0-|-2--2-2--2-|
 |-2--2-2--2-|-2--2-0--2-|-2-2-2-2-----|-2--2-2--2-|
 |-0--0-0--0-|-3--3----0-|-0-0-0-0-3-2-|-0--0-0--0-|

[Am] Q E [G] E E E [Em]Q E E [G5D/F#Em]E E Q E E [G5D/F#Em]E E Q E S S S S E
 
 |---0---0--3--3-3-|-0---0-0-----|--0---0-0-----|-0---0-0-0-0-0-0-|
 |---1---1--0--0-0-|-0---0-0-3-3-|--0---0-0-3-3-|-0---0-0-0-0-0-0-|
 |---2---2--0--0-0-|-0---0-0-0-2-|--0---0-0-0-2-|-0---0-0-0-0-0-0-|
 |---2---2--0--0-0-|-2---2-2-0-0-|--2---2-2-0-0-|-2---2-2-2-2-2-2-|
 |---0---0--2--2-2-|-2---2-2-----|--2---2-2-----|-2---2-2-2-2-2-2-|
 |----------3--3-3-|-0---0-0-3-2-|--0---0-0-3-2-|-0---0-0-0-0-0-0-|

|
| Gtr II (El. Gtr.)
| Q. Q. H. +H. H.
 
 |-----------------|-0-----------|-(0)----------|-0---------------|
 |-^10-----^8------|-0-----------|-(0)----------|-0---------------|
 |-^-9-----^7------|-0-----------|-(0)----------|-0---------------|
 |-^10-----^9------|-2-----------|-(2)----------|-2---------------|
 |-----------------|-2-----------|-(2)----------|-2---------------|
 |-----------------|-0-----------|-(0)----------|-0---------------|

2nd & 3rd Verses
$
Q E E [G5D/F#]E E [Em]Q E Q E [G]Q E [A] Q [E5]E Q [Em]E E [G5D/F#Em]E E Q. E [G5D/F#]E E
 
 |--0---0-0-----||-0---0-0----0-|-3---3---0-----|-----0-0-----|--0----0------|
 |--0---0-0-3-3-||-0---0-0----0-|-0---0---2-----|-----0-0-3-3-|--0----0-3-3--|
 |--0---0-0-0-2-||-0---0-0----0-|-0---0---2-----|-----0-0-0-2-|--0----0-0-2--|
 |--2---2-2-0-0-||-2---2-2----2-|-0---0---2-----|-----2-2-0-0-|--2----2-0-0--|
 |--2---2-2-----||-2---2-2----2-|-2---2---0---2-|-2---2-2-----|--2----2------|
 |--0---0-0-3-2-||-0---0-0----0-|-3---3-------0-|-0---0-0-3-2-|--0----0-3-2--|

|
| +H. Q. E E E Q. Q. H. +H.
 
 |-(0)----------||--------------|---------------|-0-----------|-(0)----------|
 |-(0)----------||-0------------|-------^10-----|-0-----------|-(0)----------|
 |-(0)----------||-0------------|-7-----^-9-----|-0-----------|-(0)----------|
 |-(2)----------||-2----------7-|-9-----^11-----|-2-----------|-(2)----------|
 |-(2)----------||-2-----7-10---|---------------|-2-----------|-(2)----------|
 |-(0)----------||-0------------|---------------|-0-----------|-(0)----------|

To Coda
[Em]Q E Q E [G]Q E [A] Q [E5]E E E E E [G5D/F#Em]E E Q E Q.
 
 |-0-----0----0-|-3---3---0-----|--------------|--0---0-0----|
 |-0-----0----0-|-0---0---2-----|----------3-3-|--0---0-0----|
 |-0-----0----0-|-0---0---2-----|----------0-2-|--0---0-0----|
 |-2-----2----2-|-0---0---2-----|----------0-0-|--2---2-2----|
 |-2---2-2----2-|-2---2---0---2-|-2--2-2-2-----|--2---2-2----|
 |-0---0-0----0-|-3---3-------0-|-0--0-0-0-3-2-|--0---0-0----|

|
| Q. E E E Q. Q. H. +Q. Q.
 
 |--------------|---------------|-0------------|-(0)---------|
 |-0------------|-------^10-----|-0------------|-(0)---------|
 |-0------------|-7-----^-9-----|-0------------|-(0)---------|
 |-2----------7-|-9-----^11-----|-2------------|-(2)---------|
 |-2-----7-10---|---------------|-2------------|-(2)---------|
 |-0------------|---------------|-0------------|-(0)---------|

[Am]Q E [G]E E E [Em]Q E E [G5D/F#Em]E E Q E E [G5D/F#G]E E Q E Q.
 
 |-0---0-3--3-3-|-0---0-0-----|--0---0-0-----|-3---3-3----|
 |-1---1-0--0-0-|-0---0-0-3-3-|--0---0-0-3-3-|-0---0-0----|
 |-2---2-0--0-0-|-0---0-0-0-2-|--0---0-0-0-2-|-0---0-0----|
 |-2---2-0--0-0-|-2---2-2-0-0-|--2---2-2-0-0-|-0---0-0----|
 |-0---0-2--2-2-|-2---2-2-----|--2---2-2-----|-2---2-2----|
 |-------3--3-3-|-0---0-0-3-2-|--0---0-0-3-2-|-3---3-3----|

|
| ~~ ~~
| Q. Q. H. +Q. E Q H.
 
 |--------------|-------------|--------------|------------|
 |-------0------|-0-----------|-(0)----------|------------|
 |-------0------|-0-----------|-(0)------0---|-4----------|
 |-7-----0------|-2-----------|-(2)----------|------------|
 |--------------|-2-----------|-(2)----------|------------|
 |-5-----3------|-0-----------|-(0)----------|------------|

[D]Q E [A]E E E [Em]Q E E [G5D/F#Em]E E Q E E [G5D/F#]E E [G]Q E Q E
 
 |-2----2-0--0-0-|-0---0-0-----|-0---------0--0------|---3---3-3--3-|
 |-3----3-2--2-2-|-0---0-0-3-3-|-0---------0--0--3-3-|---0---0-0--0-|
 |-2----2-2--2-2-|-0---0-0-0-2-|-0---------0--0--0-2-|---0---0-0--0-|
 |-0----0-2--2-2-|-2---2-2-0-0-|-2---------2--2--0-0-|---0---0-0--0-|
 |--------0--0-0-|-2---2-2-----|-2---------2--2------|---2---2-2--2-|
 |---------------|-0---0-0-3-2-|-0---------0--0--3-2-|---3---3-3--3-|

|
| ~~ ~~
| Q. Q. H. S +S Q +E E E a H.
 
 |---------------|-------------|---------------------|--------------|
 |---------------|-------------|---------------------|--------------|
 |-6b7----6------|-4-----------|-2b4r(2)p0---(0)-0-2-|-2s4----------|
 |---------------|-------------|---------------------|--------------|
 |---------------|-------------|---------------------|--------------|
 |---------------|-------------|---------------------|--------------|

Bridge
D A Em G5D/F#Em N.C.
Q E Q E Q E E E E Q E Q. W W
 
 |-2----2-0---0-|--0---0-0-----|-0--0-0----||------------|-------|
 |-3----3-2---2-|--0---0-0-3-3-|-0--0-0----||------------|-------|
 |-2----2-2---2-|--0---0-0-0-2-|-0--0-0----||------------|-------|
 |-0----0-2---2-|--2---2-2-0-0-|-2--2-2----||------------|-------|
 |--------0---0-|--2---2-2-----|-2--2-2----||------------|-------|
 |--------------|--0---0-0-3-2-|-0--0-0----||------------|-------|

|
| Q. Q. +H. W Q. Q. H.
 
 |--------------|--------------|-----------||------------|-------|
 |--------------|--------------|-----------||------------|-------|
 |-6b7----6-----|-(6)----------|-----------||------------|-------|
 |--------------|--------------|-----------||------------|-------|
 |--------------|--------------|-----------||------------|-9-----|
 |--------------|--------------|-----------||-7----10----|-------|

B5 N.C.
Gtr II
Q. Q +E Q. Q. H. H.
 
 |--------------|------------|---------|--------|
 |--------------|------------|---------|--------|
 |--------------|------------|---------|--------|
 |--------------|------------|-9-------|--------|
 |-9----7--(7)\-|-9----------|-9-------|-10-----|
 |--------------|-7----10----|---------|--------|

D.S. al Coda
B5 D5 E5 B5 G N.C.
Q. Q +E Q. Q. H. H. S S +Q Q.
 
 |--------------|-----------|---------|---------|---------------||
 |--------------|-----------|---------|---------|---------------||
 |--------------|-----------|-9-------|-4-------|---0-(0)--2----||
 |--------------|-9----7----|-9-------|-4-------|-0-------------||
 |-9----7--(7)\-|-9----5----|-7-------|-2-------|---------------||
 |--------------|-7---------|---------|---------|-3--------2----||

&
[Am]Gtr I[G] [Am] [G] [Am] [G] [Em] [G5D/F#]
E E E E E E E E E E E E E E E E E E Q. E E E
 
 |--0--0-0-3--3-3-|-0--0-0-3--3-3-|--0--0-0--3--3-3-|-0----0-----|
 |--1--1-1-0--0-0-|-1--1-1-0--0-0-|--1--1-1--0--0-0-|-0----0-3-3-|
 |--2--2-2-0--0-0-|-2--2-2-0--0-0-|--2--2-2--0--0-0-|-0----0-0-2-|
 |--2--2-2-0--0-0-|-2--2-2-0--0-0-|--2--2-2--0--0-0-|-2----2-0-0-|
 |--0--0-0-2--2-2-|-0--0-0-2--2-2-|--0--0-0--2--2-2-|-2----2-----|
 |---------3--3-3-|--------3--3-3-|----------3--3-3-|-0----0-3-2-|

|
| Gtr II
| Q. Q. Q. Q. Q. Q. H.
 
 |-^5-------------|-5-------------|-^5--------------|-0----------|
 |-^5------0------|-5------0------|-^5------^0------|-0----------|
 |-^5------0------|-5------0------|-^5------^0------|-0----------|
 |-^7------0------|-7------0------|-^7------^0------|-2----------|
 |-^0-------------|-0-------------|-^0--------------|-2----------|
 |---------3------|--------3------|---------^3------|-0----------|

[Em] Q E Q E [Am] E E E [G] E E E [Am] E E E [G]E E E [D]E E E [A7]E E E
 
 |--0----0-0--0-|--0--0-0--3--3-3-|--0--0-0-3--3-3-|-2--2-2-0--0-0-|
 |--0----0-0--0-|--1--1-1--0--0-0-|--1--1-1-0--0-0-|-3--3-3-2--2-2-|
 |--0----0-0--0-|--2--2-2--0--0-0-|--2--2-2-0--0-0-|-2--2-2-0--0-0-|
 |--2----2-2--2-|--2--2-2--0--0-0-|--2--2-2-0--0-0-|-0--0-0-2--2-2-|
 |--2----2-2--2-|--0--0-0--2--2-2-|--0--0-0-2--2-2-|--------0--0-0-|
 |--0----0-0--0-|----------3--3-3-|---------3--3-3-|---------------|

|
| Gtr III (El. Gtr.)
| ~~~~~~~~~~~~~~~~~~~~~~~~~~
| H. Q. Q. W W
 
 |--------------|-----------------|----------------|---------------|
 |--------------|-----------------|----------------|---------------|
 |--7b9---------|--2-------2------|----------------|---------------|
 |--------------|-----------------|----------------|---------------|
 |--------------|-----------------|----------------|---------------|
 |--------------|-----------------|----------------|---------------|

|
| Gtr II
| +H. Q. Q. Q. Q. Q. Q.
 
 |-(0)----------|-^5--------------|-^5-------------|-5-------------|
 |-(0)----------|-^5------^0------|-^5------0------|-7------5------|
 |-(0)----------|-^5------^0------|-^5------0------|-7------6------|
 |-(2)----------|-^7------^0------|-^7------0------|-7------5------|
 |-(2)----------|-^0--------------|-^0-------------|-5------7------|
 |-(0)----------|---------^3------|---------3------|--------5------|

[Em]  
[E] [E] [E] [E] [E] [E] [E] [E] [E] [E] [E] [E]  
 
 |--0--0-0-0-0-0-|--0--0-0-0-0-0-||
 |--0--0-0-0-0-0-|--0--0-0-0-0-0-||
 |--0--0-0-0-0-0-|--0--0-0-0-0-0-||
 |--2--2-2-2-2-2-|--2--2-2-2-2-2-||
 |--2--2-2-2-2-2-|--2--2-2-2-2-2-||
 |--0--0-0-0-0-0-|--0--0-0-0-0-0-||

|
| Gtr III
| W W
 
 |---------------|---------------||
 |---------------|---------------||
 |---------------|---------------||
 |---------------|---------------||
 |---------------|---------------||
 |---------------|---------------||

|
| Gtr II
| H. H.
 
 |-^0------------|-^0------------||
 |-^0------------|-^0------------||
 |-^0------------|-^0------------||
 |-^2------------|-^2------------||
 |-^2------------|-^2------------||
 |-^0------------|-^0------------||

Outro
[Em] Q. E [G5D/F#Em]E E Q. Q.
 
 |--0------------0------|---0------------------0----------|
 |--0------------0--3-3-|---0------------------0----------|
 |--0------------0--0-2-|---0------------------0----------|
 |--2------------2--0-0-|---2------------------2----------|
 |--2------------2------|---2------------------2----------|
 |--0------------0--3-2-|---0------------------0----------|

|
| E Q +Q. +E S +S S S S S +Q
 
 |----------------------|---------------------------------|
 |-----10b12===(10)-----|-(10)r-10b12r(10)p8s7s8s10-(10)--|
 |----------------------|---------------------------------|
 |----------------------|---------------------------------|
 |----------------------|---------------------------------|
 |----------------------|---------------------------------|

|
| H. H.
 
 |-^0-------------------|-^-0-----------------------------|
 |-^0-------------------|-^-0-----------------------------|
 |-^0-------------------|-^-0-----------------------------|
 |-^2-------------------|-^-2-----------------------------|
 |-^2-------------------|-^-2-----------------------------|
 |-^0-------------------|-^-0-----------------------------|

Q E S E [Em7]S S S [Em] Q. Q.
 
 |---0---0-0--0-0-0-0-|--0-------------0----|
 |---0---0-0--0-3-3-3-|--0-------------0----|
 |---0---0-0--0-0-0-0-|--0-------------0----|
 |---2---2-2--2-2-2-2-|--2-------------2----|
 |---2---2-2--2-2-2-2-|--2-------------2----|
 |---0---0-0--0-0-0-0-|--0-------------0----|

|
| ~~~~~~~~~~
| +Q. Q. E S S E +Q.
 
 |--------------------|---------------------|
 |-(10)---------------|-----10s12s15-(15)---|
 |--------------------|---------------------|
 |--------------------|---------------------|
 |--------------------|---------------------|
 |--------------------|---------------------|

|
| H. H.
 
 |--------------------|---------------------|
 |--------------------|---------------------|
 |-^-9----------------|-^9------------------|
 |-^-9----------------|-^9------------------|
 |-^-7----------------|-^7------------------|
 |--------------------|---------------------|

Q. Q S S E. S S S E. S S S
 
 |---0------0----0-0-|-0-----0-0-0--0------0--0-0-|
 |---0------0----0-0-|-0-----0-0-0--0------0--0-0-|
 |---0------0----0-0-|-0-----0-0-0--0------0--0-0-|
 |---2------2----2-2-|-2-----2-2-2--2------2--2-2-|
 |---2------2----2-2-|-2-----2-2-2--2------2--2-2-|
 |---0------0----0-0-|-0-----0-0-0--0------0--0-0-|

|
|~~~~~~~
| +E Q Q. Q. E S E.
 
 |-------------------|----------------------------|
 |-(15)\-------------|-------------15--12s10------|
 |-------------------|----------------------------|
 |-------------------|----------------------------|
 |-------------------|----------------------------|
 |-------------------|----------------------------|

|
| +Q. E E E S S E S S E S S E
 
 |-------------------|----------------------------|
 |---------------8---|-----7----------------------|
 |--(9)-----9--------|--------------7---------9---|
 |--(9)--------9-----|-7h9-----7h9------7h=9------|
 |--(7)--------------|----------------------------|
 |-------------------|----------------------------|

E. S S S S S [G5]E [D/F#]E [Em]E. S S S S [Em7]E S S S
 
 |---0------0-0-0-0-0---------|-0--------0-0-0-0--0-0-0-0-|
 |---0------0-0-0-0-0-3---3---|-0--------0-0-0-0--3-3-3-3-|
 |---0------0-0-0-0-0-0---2---|-0--------0-0-0-0--0-0-0-0-|
 |---2------2-2-2-2-2-0---0---|-2--------2-2-2-2--2-2-2-2-|
 |---2------2-2-2-2-2---------|-2--------2-2-2-2--2-2-2-2-|
 |---0------0-0-0-0-0-3---2---|-0--------0-0-0-0--0-0-0-0-|

|
| +E E E Q. W
 
 |----------------------------|---------------------------|
 |-(10)p==8-------------------|---------------------------|
 |----------------------------|---------------------------|
 |----------------------------|---------------------------|
 |----------------------------|---------------------------|
 |----------------------------|---------------------------|

|
| S S S S S S S S S S S S S S +Q Q.
 
 |----------------------------|---------------------------|
 |----------------------------|---------------------------|
 |----------------------------|----9-(9)------------------|
 |---7h=9-7h9-7h9-7h9-7h9-7h9-|-7-------------------------|
 |----------------------------|---------------------------|
 |----------------------------|----------------0----------|

[Em] E. S +S S S S S S S S
 
 |--0------0-(0)-0--0--0-0-0-0-0---*|
 |--0------0-(0)-0--0--0-0-0-0-0---*|
 |--0------0-(0)-0--0--0-0-0-0-0---*|
 |--2------2-(2)-2--2--2-2-2-2-2---*|
 |--2------2-(2)-2--2--2-2-2-2-2---*|
 |--0------0-(0)-0--0--0-0-0-0-0---*|

|
| W
 
 |---------------------------------*|
 |---------------------------------*|
 |---------------------------------*|
 |---------------------------------*|
 |---------------------------------*|
 |---------------------------------*|

|
| +S S E E +Q.
 
 |---------------------------------*|
 |---------------------------------*|
 |------------9----(9)-------------*|
 |-----7h9-------------------------*|
 |---------------------------------*|
 |-(0)-----------------------------*|


Important: The song above is NOT stored on the Chordie server. The original song is hosted at www.azchords.com. Chordie works as a search engine and provides on-the-fly formatting. Chordie does not index songs against artists'/composers' will. To remove this song please click here.

Text color:
Chord color:
Chord grids: 
Font size:    
Page size: 

A A7 Am D D/F# E E5 Em Em7 G G5
Rate #1 of 1 versions

Login - add to songbook

SHARE PAGE  



You need to log in to post comments