Guitar Tabs, Chords and Lyrics
Server problems seems to be fixed. Chordie has been experiencing problems with songs disappearing. These issues now seems to be fixed, but still verifying the fix. If you find anything strange, please email admin@chordie.com.


The Stealer  Free

Gtr I (E A D G B E) - 'Paul Kossoff - Electric Guitar 1'
Gtr II (E A D G B E) - 'Paul Kossoff - Electric Guitar 2'
Gtr III (E A D G B E) - 'Paul Kossoff - Electric Guitar 3'
Intro
Q=88
[A5] [Dsus4]  
[4/4] Gtr I
S S Q. +H E Q. +Q Q
 
 |-----------------|-------------------|
 |-----------------|-------------------|
 |-----2----(2)----|----0----(0)-------|
 |-----2----(2)----|----5----(5)-------|
 |-3p0-0----(0)----|-/5-5----(5)--/7\--|
 |-----------------|-------------------|

|
| Gtr II
| W W
 
 |-----------------|-------------------|
 |-----------------|-------------------|
 |-----------------|-------------------|
 |-----------------|-------------------|
 |-----------------|-------------------|
 |-----------------|-------------------|

S S [A5]Q. +H E [Dsus4]Q. +Q Q
 
 |------------------------------------|-----------------------|
 |------------------------------------|-----------------------|
 |-----2-------------------(2)--------|---------0----(0)------|
 |-----2-------------------(2)--------|---------5----(5)------|
 |-3p0-0-------------------(0)--------|-/5------5----(5)--5---|
 |------------------------------------|-----------------------|

|
| ~~~~~~~~~~~~~~~
| Q S +S S S +Q +Q W
 
 |-----------------8------------------|-----------------------|
 |--------8b10-(8)---8b10==(8)--(8)r--|--8pb10================|
 |------------------------------------|-----------------------|
 |------------------------------------|-----------------------|
 |------------------------------------|-----------------------|
 |------------------------------------|-----------------------|

1st & 2nd Verses
N.C. N.C.
e e e e S S E S S E e e e e S S E S S E e e e e S S E S S E
 
 |------------------------|---------------------||-----------------------|
 |------------------------|---------------------||o----------------------|
 |----------------2-------|-------------2-------||--------------2--------|
 |------------------------|---------------------||-----------------------|
 |--3---0---0-3p0---3s5-5-|-3-0---0-3p0---3s5-5-||o-3-0---0-3p0---3s5-5--|
 |--------3---------------|-----3---------------||------3----------------|

|
| ~~~~
| +Q Q H W W
 
 |------------------------|---------------------||-----------------------|
 |-(8)r-------------------|---------------------||o----------------------|
 |------------------------|---------------------||-----------------------|
 |------------------------|---------------------||-----------------------|
 |------------------------|---------------------||o----------------------|
 |------------------------|---------------------||-----------------------|

e e e e S S E S S E e e e e S S E S S E e e e e S S E S S E
 
 |---------------------------|---------------------|----------------------|
 |---------------------------|---------------------|----------------------|
 |------------------2--------|-------------2-------|-------------2--------|
 |---------------------------|---------------------|----------------------|
 |-3-0---0-3p===0------3s5-5-|-3-0---0-3p0---3s5-5-|-3-0---0-3p0---3s5-5--|
 |-----3---------------------|-----3---------------|-----3----------------|

|
| ~~~~~~~
| H S +S +Q. W W
 
 |---------------------------|---------------------|----------------------|
 |---------8---(8)-(8)-------|---------------------|----------------------|
 |---------7b9r(7)-(7)-------|---------------------|----------------------|
 |---------------------------|---------------------|----------------------|
 |---------------------------|---------------------|----------------------|
 |---------------------------|---------------------|----------------------|

[A5] e e e e [Am] S S E S S E [Dsus4] e e e e S S E S S E
 
 |-----------------------|-----------------------------------|
 |-----------------------|-----------------------------------|
 |---------------2-------|-------------------2---------------|
 |-----------------------|-----------------------------------|
 |--3-0---0--3p0---3s5-5-|--3-0---0-3p====0-----------3s=5-5-|
 |------3----------------|------3----------------------------|

|
| ~~~~~~~~
| W H S +S S S +Q
 
 |-----------------------|-------------------8---------------|
 |-----------------------|----------8b10-(8)---8b10==(8)-----|
 |-----------------------|-----------------------------------|
 |-----------------------|-----------------------------------|
 |-----------------------|-----------------------------------|
 |-----------------------|-----------------------------------|

|
| Gtr III
| H H W
 
 |-17-------12-----------|-10--------------------------------|
 |-17-------13-----------|-10--------------------------------|
 |-14-------14-----------|-12--------------------------------|
 |-14-------14-----------|-12--------------------------------|
 |-----------------------|-----------------------------------|
 |-----------------------|-----------------------------------|

[A5] e e e e [Am] S S E S S E
 
 |------------------------|
 |------------------------|
 |----------------2-------|
 |------------------------|
 |--3--0---0--3p0---3s5-5-|
 |-------3----------------|

|
|~~~~~
| +W
 
 |------------------------|
 |-(8)--------------------|
 |------------------------|
 |------------------------|
 |------------------------|
 |------------------------|

|
| H H
 
 |-17--------12-----------|
 |-17--------13-----------|
 |-14--------14-----------|
 |-14--------14-----------|
 |------------------------|
 |------------------------|

[Dsus4] e e e e S S E S S E
 
 |-------------------------------------|
 |-------------------------------------|
 |---------------------2---------------|
 |-------------------------------------|
 |--3---0---0-3p====0-----------3s=5-5-|
 |--------3----------------------------|

|
| ~~~~ ~~~~~~~~
| +Q Q S +S S S +Q
 
 |---------------------8---------------|
 |-(8)r-------8b10-(8)---8b10==(8)-----|
 |-------------------------------------|
 |-------------------------------------|
 |-------------------------------------|
 |-------------------------------------|

|
| W
 
 |-10----------------------------------|
 |-10----------------------------------|
 |-12----------------------------------|
 |-12----------------------------------|
 |-------------------------------------|
 |-------------------------------------|

[A5] e e e e [Am] S S E S S E [Dsus4] e e e e S S E E E
 
 |-------------------------|---------------------------|
 |-------------------------|---------------------------|
 |-----------------2-------|---------------2--------12-|
 |-------------------------|-------------------/12-----|
 |--3---0---0--3p0---3s5-5-|--3-0---0--3-0-------------|
 |--------3----------------|------3--------------------|

|
|~~~~~~ ~~~~~~~
| +W H E. S +Q
 
 |-------------------------|---------------------------|
 |-(8)r--------------------|----------10s====5--(5)----|
 |-------------------------|---------------------------|
 |-------------------------|---------------------------|
 |-------------------------|---------------------------|
 |-------------------------|---------------------------|

|
| H H W
 
 |-17---------12-----------|-10------------------------|
 |-17---------13-----------|-10------------------------|
 |-14---------14-----------|-12------------------------|
 |-14---------14-----------|-12------------------------|
 |-------------------------|---------------------------|
 |-------------------------|---------------------------|

1. 2.
[A5] E Q E [Dsus4] E E E E [D5] H. E E [D5] H. Q
 
 |-------------------------|----------------||-------------||
 |-------------------------|---------------o||-------------||
 |-------------------------|--7-------------||--7----------||
 |-\10----------------9----|--7----------5--||--7----------||
 |------12--10-10-12----\9-|--5-------/5-5-o||--5----------||
 |-------------------------|----------------||-------------||

|
| ~~~~
| +H E E E E H. Q H. Q
 
 |-------------------------|----------------||-------------||
 |--(5)--------------------|--3------------o||--3----------||
 |--------------5--7--4--0-|--2--------0----||--2-------0--||
 |-------------------------|--0--------0----||--0-------0--||
 |-------------------------|---------------o||-------------||
 |-------------------------|----------------||-------------||

|
| H Q Q W W
 
 |--17---------15----------|-17-------------||-17----------||
 |--17---------15----------|-15------------o||-15----------||
 |--14---------12----------|-14-------------||-14----------||
 |--14---------12----12----|--0-------------||--0----------||
 |-------------------12----|---------------o||-------------||
 |-------------------------|----------------||-------------||

Guitar Solo
[A]Q. [Dadd4/A]E +H [Em/A] Q. [Dadd4/A]E +H [A]Q. [Dadd4/A]E +H
 
 |-------------------|-----------------|---------------|
 |-2--------3-(3)----|--5----3-(3)-----|-2----3-(3)----|
 |-2--------0-(0)----|--0----0-(0)-----|-2----0-(0)----|
 |-2--------4-(4)----|--5----4-(4)-----|-2----4-(4)----|
 |-0--------0-(0)----|--0----0-(0)-----|-0----0-(0)----|
 |-------------------|-----------------|---------------|

|
| ~~~~~~~~~~~~~~~~~~~~~~ ~~~~~~~~~~~~~~~
| S E. +H. +H Q Q W
 
 |-------------------|-----------------|---------------|
 |-------------------|-----------------|---------------|
 |-0h2--(2)----------|-(2)-----/5---7--|-9-------------|
 |-------------------|-----------------|---------------|
 |-------------------|-----------------|---------------|
 |-------------------|-----------------|---------------|

[Em/A] Q. [Dadd4/A] E +H
 
 |--------------------------------------------|
 |--5--------------3--(3)---------------------|
 |--0--------------0--(0)---------------------|
 |--5--------------4--(4)---------------------|
 |--0--------------0--(0)---------------------|
 |--------------------------------------------|

|
|~~~~~
| +E E E +E S E. E S S
 
 |--------------------------------------------|
 |-----10b13==10r(10)-10b12-10pb13-10b13-10p8-|
 |-(9)----------------------------------------|
 |--------------------------------------------|
 |--------------------------------------------|
 |--------------------------------------------|

[A] Q. [Dadd4/A]E +H [Em/A]Q. [Dadd4/A]E +H [A]Q. [Dadd4/A]E +H
 
 |----------------|------------------------------|---------------------------|
 |--2----3-(3)----|-5-----------3-(3)------------|---2----3-(3)--------------|
 |--2----0-(0)----|-0-----------0-(0)------------|---2----0-(0)--------------|
 |--2----4-(4)----|-5-----------4-(4)------------|---2----4-(4)--------------|
 |--0----0-(0)----|-0-----------0-(0)------------|---0----0-(0)--------------|
 |----------------|------------------------------|---------------------------|

|
| ~~~ ~~~
| |-3--| |-3-|
| W E S S S E E Q S S S +E a H +E E E +E
 
 |----------------|------------------------------|---------------------------|
 |-10-------------|----8h10p8-7h8--8---7h8p7-(7)-|-7s5------(5)---8-----(8)--|
 |----------------|------------------------------|----------------7pb9==(7)r=|
 |----------------|------------------------------|---------------------------|
 |----------------|------------------------------|---------------------------|
 |----------------|------------------------------|---------------------------|

3rd Verse
[Em/A]Gtr I[Dadd4/A] [A5] [Am] [Dsus4]
Q. E +Q E E e e e e S S E S S E e e e e S S E S S E
 
 |----------------------------||-----------------------|-----------------------|
 |--5--------3-(3)------------||-----------------------|-----------------------|
 |--0--------0-(0)------------||---------------2-------|--------------2--------|
 |--5--------4-(4)------------||-----------------------|-----------------------|
 |--0--------0-(0)------/5--5-||--3-0---0--3p0---3s5-5-|--3-0---0-3p0---3s5-5--|
 |----------------------------||------3----------------|------3----------------|

|
| ~ ~~~~~~
| +E S S Q S S S S +Q W W
 
 |----------------------------||-----------------------|-----------------------|
 |-(8)------------------------||-----------------------|-----------------------|
 |-(7)-5h7-7----5h7p5s2-(2)---||-----------------------|-----------------------|
 |----------------------------||-----------------------|-----------------------|
 |----------------------------||-----------------------|-----------------------|
 |----------------------------||-----------------------|-----------------------|

|
| Gtr III
| W H H W
 
 |----------------------------||-17-------12-----------|-10--------------------|
 |----------------------------||-17-------13-----------|-10--------------------|
 |----------------------------||-14-------14-----------|-12--------------------|
 |----------------------------||-14-------14-----------|-12--------------------|
 |----------------------------||-----------------------|-----------------------|
 |----------------------------||-----------------------|-----------------------|

[A5] e e e e [Am] S S E S S E [Dsus4] e e e e S S E S S E [A5] e e e e [Am] S S E S S E
 
 |-----------------------|----------------------|------------------------|
 |-----------------------|----------------------|------------------------|
 |---------------2-------|--------------2-------|---------------2--------|
 |-----------------------|----------------------|------------------------|
 |--3-0---0--3p0---3s5-5-|--3-0---0-3p0---3s5-5-|--3-0---0--3p0---3s5-5--|
 |------3----------------|------3---------------|------3-----------------|

|
| Gtr III
| H H W H H
 
 |-17-------12-----------|-10-------------------|-17-------12------------|
 |-17-------13-----------|-10-------------------|-17-------13------------|
 |-14-------14-----------|-12-------------------|-14-------14------------|
 |-14-------14-----------|-12-------------------|-14-------14------------|
 |-----------------------|----------------------|------------------------|
 |-----------------------|----------------------|------------------------|

[Dsus4] e e e e S S E E E [A5] E Q E [Am] E E E E
 
 |-----------------------|------------------------|
 |-----------------------|------------------------|
 |--------------2-----12-|------------------------|
 |----------------/12----|-\10---------------9----|
 |--3-0---0-3-0----------|-----12--10-10-12----\9-|
 |------3----------------|------------------------|

|
| Gtr II
| W W
 
 |-----------------------|------------------------|
 |-----------------------|------------------------|
 |-----------------------|------------------------|
 |-----------------------|------------------------|
 |-----------------------|------------------------|
 |-----------------------|------------------------|

|
| Gtr III
| W H Q Q
 
 |-10--------------------|--17--------15----------|
 |-10--------------------|--17--------15----------|
 |-12--------------------|--14--------12----------|
 |-12--------------------|--14--------12----12----|
 |-----------------------|------------------12----|
 |-----------------------|------------------------|

Outro Guitar Solo
[D5] H. Q [A]Q. [Dadd4/A]E +H
 
 |-------------||---------------|
 |-------------||-2----3-(3)----|
 |--7----------||-2----0-(0)----|
 |--7----------||-2----4-(4)----|
 |--5----------||-0----0-(0)----|
 |-------------||---------------|

|
| H. Q W
 
 |-------------||---------------|
 |-------------||---------------|
 |----------0--||---------------|
 |--0-------0--||---------------|
 |-------------||---------------|
 |-------------||---------------|

|
| W W
 
 |-17----------||---------------|
 |-15----------||---------------|
 |-14----------||---------------|
 |--0----------||---------------|
 |-------------||---------------|
 |-------------||---------------|

[Em/A]Q. [Dadd4/A]E +H [A]Q. [Dadd4/A]E +H
 
 |---------------|-------------------|
 |-5----3-(3)----|-2--------3-(3)----|
 |-0----0-(0)----|-2--------0-(0)----|
 |-5----4-(4)----|-2--------4-(4)----|
 |-0----0-(0)----|-0--------0-(0)----|
 |---------------|-------------------|

|
| ~~~~~~~~~~~~~~~
| W E E H.
 
 |---------------|-------------------|
 |---------------|-------------------|
 |---------------|-5s7-7b9===========|
 |---------------|-------------------|
 |---------------|-------------------|
 |---------------|-------------------|

[Em/A] Q. [Dadd4/A]E +H [A] Q. [Dadd4/A]E +H
 
 |-----------------------------|----------------------------|
 |--5----3-(3)-----------------|--2---------3-(3)-----------|
 |--0----0-(0)-----------------|--2---------0-(0)-----------|
 |--5----4-(4)-----------------|--2---------4-(4)-----------|
 |--0----0-(0)-----------------|--0---------0-(0)-----------|
 |-----------------------------|----------------------------|

|
|~~~~~~~~~~~~~~ ~~ ~~~~~~
| +H +E E S +S S S +S E. S S E +E. S S S E
 
 |-----------------------------|----------------------------|
 |-----------------------------|----------------------------|
 |-(7)-----(7)r---7pb9r(7)p5-7-|-(7)-7--5-7-------x-x-------|
 |-----------------------------|------------7-(7)-x-x-------|
 |-----------------------------|----------------------------|
 |-----------------------------|----------------------------|

[Em/A]Q. [Dadd4/A]E +H [A] Q. [Dadd4/A]E +H
 
 |---------------------------|-----------------|
 |-5----3-(3)----------------|---2----3-(3)----|
 |-0----0-(0)----------------|---2----0-(0)----|
 |-5----4-(4)----------------|---2----4-(4)----|
 |-0----0-(0)----------------|---0----0-(0)----|
 |---------------------------|-----------------|

|
| ~~~~~~~~~
| H E S S S S E +W
 
 |---------------------------|-----------------|
 |------------13p12----------|-----------------|
 |------------------14-12-14-|-(14)------------|
 |---------------------------|-----------------|
 |---------------------------|-----------------|
 |---------------------------|-----------------|

[Em/A]Q. [Dadd4/A] E +H [A] Q. [Dadd4/A]E +H
 
 |---------------------------------|--------------------|
 |-5-----------3--(3)--------------|---2-----3-(3)------|
 |-0-----------0--(0)--------------|---2-----0-(0)------|
 |-5-----------4--(4)--------------|---2-----4-(4)------|
 |-0-----------0--(0)--------------|---0-----0-(0)------|
 |---------------------------------|--------------------|

|
| ~~~~~
| E Q +E E. S E. S +H. Q
 
 |-----------------------15-15-----|--------------------|
 |----15b17r=(15)-15b17=====15--15-|-(15)r--------------|
 |---------------------------------|--------------------|
 |---------------------------------|--------------------|
 |---------------------------------|--------------------|
 |---------------------------------|--------------------|

[Em/A]Q. [Dadd4/A] E +H
 
 |--------------------------------|
 |-5----------3-(3)---------------|
 |-0----------0-(0)---------------|
 |-5----------4-(4)---------------|
 |-0----------0-(0)---------------|
 |--------------------------------|

|
| ~~~
| E Q E Q +E S S
 
 |-----------15-------------------|
 |----15b17-----15b17r=(15)p13-15-|
 |--------------------------------|
 |--------------------------------|
 |--------------------------------|
 |--------------------------------|

[A] Q. [Dadd4/A] E +H [Em/A]Q. [Dadd4/A]E +H
 
 |-------------------------------|----------------------------|
 |---2----------3----(3)---------|-5---------3-(3)------------|
 |---2----------0----(0)---------|-0---------0-(0)------------|
 |---2----------4----(4)---------|-5---------4-(4)------------|
 |---0----------0----(0)---------|-0---------0-(0)------------|
 |-------------------------------|----------------------------|

|
|~~~~~~ ~~~~~~~~~~~ ~~~~~~ ~
| +Q S S S S Q. +E E E S S E +E S S E S S
 
 |-------------------------------|----------------------------|
 |-(15)--13p12-------------------|-------8--------------------|
 |-------------14-12-14----(14)\-|----/9---9s7-(7)-5-7-7-5----|
 |-------------------------------|-------------------------7--|
 |-------------------------------|----------------------------|
 |-------------------------------|----------------------------|

[A]Q. [Dadd4/A]E +H [Em/A]Q. [Dadd4/A]E +H
 
 |--------------------------|--------------------------------|
 |-2----3-(3)---------------|-5-------3-(3)------------------|
 |-2----0-(0)---------------|-0-------0-(0)------------------|
 |-2----4-(4)---------------|-5-------4-(4)------------------|
 |-0----0-(0)---------------|-0-------0-(0)------------------|
 |--------------------------|--------------------------------|

|
| ~~ ~~~~~~~~~~~~~~~
| |--3---|
| H E E +E. +S H +E E +E +E E
 
 |--------------------------|------------------------------5-|
 |------------8b10==(8)r(8)-|-8b10======(8)r-8b10==(8)r(8)---|
 |--------------------------|--------------------------------|
 |-7------------------------|--------------------------------|
 |--------------------------|--------------------------------|
 |--------------------------|--------------------------------|

[A]Q. [Dadd4/A] E +H
 
 |---------------------------------------|
 |-2------------3--(3)-------------------|
 |-2------------0--(0)-------------------|
 |-2------------4--(4)-------------------|
 |-0------------0--(0)-------------------|
 |---------------------------------------|

|
| S E. +E +E S +S S S S S S S
 
 |---------------------------------------|
 |-8-------------------------------------|
 |----7b9==(7)r(7)--7pb9r(7)p5---7-5-----|
 |-----------------------------7-----7-5-|
 |---------------------------------------|
 |---------------------------------------|

[Em/A]Q. [Dadd4/A] E +H
 
 |------------------------------------------------|
 |-5-------------3----(3)-------------------------|
 |-0-------------0----(0)-------------------------|
 |-5-------------4----(4)-------------------------|
 |-0-------------0----(0)-------------------------|
 |------------------------------------------------|

|
| E S S S S +S S S +S S S +S S S +S
 
 |------------------------------------------------|
 |----5-------------8----------8----------8-------|
 |----5---5-7b9-(7)----7b9-(7)---7b9==(7)---7r(7)-|
 |-7----7-----------------------------------------|
 |------------------------------------------------|
 |------------------------------------------------|

[A]Q. [Dadd4/A] E +H [Em/A]Q. [Dadd4/A] E +H
 
 |---------------------------------------------|-----------------------------------------------|
 |-2------------3-----------(3)----------------|-5------------3-----------(3)------------------|
 |-2------------0-----------(0)----------------|-0------------0-----------(0)------------------|
 |-2------------4-----------(4)----------------|-5------------4-----------(4)------------------|
 |-0------------0-----------(0)----------------|-0------------0-----------(0)------------------|
 |---------------------------------------------|-----------------------------------------------|

|
| ~~ ~~
| E E E S +S +S +S S S Q E E E S +S +S +S S S Q
 
 |---------------------------------------------|-----------------------------------------------|
 |----------20---------------------------------|----------20-----------------------------------|
 |----19b21----19b24==(19)-(19)r(19)-17-19-----|----19b21----19b24==(19)-(19)r(19)-17-19-------|
 |-----------------------------------------19--|-----------------------------------------19----|
 |---------------------------------------------|-----------------------------------------------|
 |---------------------------------------------|-----------------------------------------------|

[A]Q. [Dadd4/A] E +H
 
 |-----------------------------------------------|
 |-2--------------------3----------(3)-----------|
 |-2--------------------0----------(0)-----------|
 |-2--------------------4----------(4)-----------|
 |-0--------------------0----------(0)-----------|
 |-----------------------------------------------|

|
| ~~~~~~~~~~
 
 | |---3----|

| E E S S +S +S S S E. +Q
 
 |-----------------------------------------------|
 |----------20-------------------------20--(20)--|
 |-x--19b21----19b21==(19)r(19)p17---------------|
 |-x-------------------------------19------------|
 |-----------------------------------------------|
 |-----------------------------------------------|

[Em/A] Q. [Dadd4/A] E +H [A] Q. [Dadd4/A]E +H
 
 |--------------------------------------------------------------|----------------------------------------------|
 |---5------------3------------(3)------------------------------|--2-------3-(3)-------------------------------|
 |---0------------0------------(0)------------------------------|--2-------0-(0)-------------------------------|
 |---5------------4------------(4)------------------------------|--2-------4-(4)-------------------------------|
 |---0------------0------------(0)------------------------------|--0-------0-(0)-------------------------------|
 |--------------------------------------------------------------|----------------------------------------------|

|
|~~~~~~
| +E E E +S +S +S +S E +S E +S H S S S S S S +S S
 
 |--------------------------------------------------------------|----------------------------------------------|
 |-(20)---20b22r(20)b22==(20)-(20)r(20)-20pb22r(20)-20pb22r(20)-|-20pb22-----20--20-------20-20-------------20-|
 |--------------------------------------------------------------|-------------------19b21-------19pb21r(19)----|
 |--------------------------------------------------------------|----------------------------------------------|
 |--------------------------------------------------------------|----------------------------------------------|
 |--------------------------------------------------------------|----------------------------------------------|

[Em/A] Q. [Dadd4/A] E +H
 
 |------------------------------------------------------------------------|
 |--5-----------------------------3--(3)----------------------------------|
 |--0-----------------------------0--(0)----------------------------------|
 |--5-----------------------------4--(4)----------------------------------|
 |--0-----------------------------0--(0)----------------------------------|
 |------------------------------------------------------------------------|

|
| S +S S S S S +E S S +S S T +T E S
 
 |------------------------------------------------------------------------|
 |-------------20---------20---------20--------------20-------------------|
 |-19pb21r(19)----19pb21=====19r(19)-----19pb21r(19)----19pb21r(19)p17-19-|
 |------------------------------------------------------------------------|
 |------------------------------------------------------------------------|
 |------------------------------------------------------------------------|

[A] Q. [Dadd4/A] E +H [Em/A] Q. [Dadd4/A] E +H
 
 |--------------------------------|--------------------------------------------------------|
 |--2----------3----(3)-----------|--5--------------------3-------(3)----------------------|
 |--2----------0----(0)-----------|--0--------------------0-------(0)----------------------|
 |--2----------4----(4)-----------|--5--------------------4-------(4)----------------------|
 |--0----------0----(0)-----------|--0--------------------0-------(0)----------------------|
 |--------------------------------|--------------------------------------------------------|

|
| ~~~ ~~~ ~~
| Q S S S S Q E E E S S S S S S S S S S E S S
 
 |--------------------------------|-------------------17-------17-17-----17-17-------20----|
 |--------------------------------|-------17-------17-----------------17-------20b22----20-|
 |-19---17p16---------------------|-19b21----19b21-------19b21-----------------------------|
 |------------19-17-19---17-19b22-|--------------------------------------------------------|
 |--------------------------------|--------------------------------------------------------|
 |--------------------------------|--------------------------------------------------------|

[A] Q. [Dadd4/A] E +H [Em/A] Q. [Dadd4/A]E +H
 
 |--------------------------------------|------------------------------------------|
 |---2------3----(3)--------------------|--5------------3-(3)----------------------|
 |---2------0----(0)--------------------|--0------------0-(0)----------------------|
 |---2------4----(4)--------------------|--5------------4-(4)----------------------|
 |---0------0----(0)--------------------|--0------------0-(0)----------------------|
 |--------------------------------------|------------------------------------------|

|
| ~~~~ ~~~~~
| +Q E S S E. S +E +E S S Q. S S S S S S S S
 
 |---------17----20b22-20b22==(20)r(20)-|-17--20----------17-----------------------|
 |-(20)---------------------------------|--------20b22--------20-17s16s15-17-------|
 |------------19------------------------|------------------------------------17----|
 |--------------------------------------|---------------------------------------19-|
 |--------------------------------------|------------------------------------------|
 |--------------------------------------|------------------------------------------|

[A] Q. [Dadd4/A] E +H
 
 |-------------------------------------------------------|
 |--2----------------3---------(3)-----------------------|
 |--2----------------0---------(0)-----------------------|
 |--2----------------4---------(4)-----------------------|
 |--0----------------0---------(0)-----------------------|
 |-------------------------------------------------------|

|
| ~~~
| S a E. S S S S +E. S +S E.
 
 |-------------------------------------------------------|
 |---------------------19b20==(19)r-19b20==(19)r-19b20===|
 |-17---------17----17-19b21==(19)r-19b21==(19)r-19b21===|
 |-----17h19-----19--------------------------------------|
 |-------------------------------------------------------|
 |-------------------------------------------------------|

[Em/A] Q. [Dadd4/A]E +H [A] Q. [Dadd4/A] E +H
 
 |-----------------------------------------------------|---------------------------------------------------|
 |---5---------------3---------(3)---------------------|--2------------------3------(3)--------------------|
 |---0---------------0---------(0)---------------------|--2------------------0------(0)--------------------|
 |---5---------------4---------(4)---------------------|--2------------------4------(4)--------------------|
 |---0---------------0---------(0)---------------------|--0------------------0------(0)--------------------|
 |-----------------------------------------------------|---------------------------------------------------|

|
| +S E. E. S +E E +S E. E. S +E E +S E. S S S S
 
 |-----------------------------------------------------|---------------------------------------------------|
 |-(19)r-19b20-19b20---19b20==(19)r-19b20==(19)r-19b20-|-19b20-19b20==(19)r-19b20==(19)r-19b20-17----------|
 |-(19)r-19b21-19b21---19b21==(19)r-19b21==(19)r-19b21-|-19b21-19b21==(19)r-19b21==(19)r-19b21-17----------|
 |-----------------------------------------------------|------------------------------------------19-17-19-|
 |-----------------------------------------------------|---------------------------------------------------|
 |-----------------------------------------------------|---------------------------------------------------|

[Em/A] Q. [Dadd4/A]E +H
 
 |----------------------------------------------------------|
 |---5--------------3----(3)--------------------------------|
 |---0--------------0----(0)--------------------------------|
 |---5--------------4----(4)--------------------------------|
 |---0--------------0----(0)--------------------------------|
 |----------------------------------------------------------|

|
| ~~
| +E S S S S S S S S +S S S +S S S
 
 |--------------------------------------20------------20----|
 |------17----17------21-17--20b22-(20)----20b22-(20)----20-|
 |------17-17----19-----------------------------------------|
 |-(19)-----------------------------------------------------|
 |----------------------------------------------------------|
 |----------------------------------------------------------|

[A] Q. [Dadd4/A] E +H [Em/A] Q. [Dadd4/A]E +H
 
 |----------------------------------------------|--------------------------------------------------------------------------|
 |---2----------3--------(3)--------------------|---5------------------------3------(3)------------------------------------|
 |---2----------0--------(0)--------------------|---0------------------------0------(0)------------------------------------|
 |---2----------4--------(4)--------------------|---5------------------------4------(4)------------------------------------|
 |---0----------0--------(0)--------------------|---0------------------------0------(0)------------------------------------|
 |----------------------------------------------|--------------------------------------------------------------------------|

|
| ~~~~ ~~~~
| +Q S S S S +Q E +S S +S +S E +S E +S E +S S +S +S S +S
 
 |-------17-20p17-------------------------------|--------------------------------------------------------------------------|
 |-(20)-----------20b22-(20)--20b22r(20)-20b22==|=(20)r(20)-20b22r(20)-20b22r==(20)-20b22r(20)-20b22==(20)r(20)-20b22r(20)-|
 |----------------------------------------------|--------------------------------------------------------------------------|
 |----------------------------------------------|--------------------------------------------------------------------------|
 |----------------------------------------------|--------------------------------------------------------------------------|
 |----------------------------------------------|--------------------------------------------------------------------------|

[A] Q. [Dadd4/A] E +H
 
 |---------------------------------------------------|
 |--2-------3--------(3)-----------------------------|
 |--2-------0--------(0)-----------------------------|
 |--2-------4--------(4)-----------------------------|
 |--0-------0--------(0)-----------------------------|
 |---------------------------------------------------|

|
| ~~~~~
| Q. S S +S S E S S +S S
 
 |---------17------------17-------17------------17---|
 |-20b22------20b22-(20)----20b22----20b22-(20)------|
 |---------------------------------------------------|
 |---------------------------------------------------|
 |---------------------------------------------------|
 |---------------------------------------------------|

[Em/A] Q. [Dadd4/A] E +H
 
 |-------------------------------------------------------------|
 |--5-----------------------------------3-----(3)--------------|
 |--0-----------------------------------0-----(0)--------------|
 |--5-----------------------------------4-----(4)--------------|
 |--0-----------------------------------0-----(0)--------------|
 |-------------------------------------------------------------|

|
| S +S S S +S S a +S S S E. S S E
 
 |------------17------------17---------------------------------|
 |-20b22-(20)----20b22-(20)----20pb22r(20)-20-17--17-----------|
 |--------------------------------------------17--17-----17----|
 |----------------------------------------------------19-17-19-|
 |-------------------------------------------------------------|
 |-------------------------------------------------------------|

[A] Q. [Dadd4/A] E +H [Em/A] Q. [Dadd4/A]E +H
 
 |-------------------------------------------------------|-----------------------------------------------|
 |--2-------------------------3-----(3)------------------|--5-----------------3----(3)-------------------|
 |--2-------------------------0-----(0)------------------|--0-----------------0----(0)-------------------|
 |--2-------------------------4-----(4)------------------|--5-----------------4----(4)-------------------|
 |--0-------------------------0-----(0)------------------|--0-----------------0----(0)-------------------|
 |-------------------------------------------------------|-----------------------------------------------|

|
| ~~~~~~~
| S S S S +S S S S +E S S +E S S E S S S E S S E. S S S S
 
 |-------------------------------------------------------|-----------------------------------------------|
 |-17-----17----------------------------17-17-(17)-------|----------------------19-17--19b20-17----17----|
 |-17--17----19b21==(19)r-19-17-19-(19)----17-(17)-------|-----17----17-19b21---19-17--19b21-17----17-19-|
 |-------------------------------------------------19-17-|-19-----19----------------------------19-------|
 |-------------------------------------------------------|-----------------------------------------------|
 |-------------------------------------------------------|-----------------------------------------------|

[A] Q. [Dadd4/A] E +H
 
 |-----------------------------------------------|
 |--2------------3---------(3)-------------------|
 |--2------------0---------(0)-------------------|
 |--2------------4---------(4)-------------------|
 |--0------------0---------(0)-------------------|
 |-----------------------------------------------|

|
| ~~~~~ ~~~~~~~~~~~~ ~~~~~~~
| Q S S S S +Q S S S S
 
 |--------17-------------------------------------|
 |-----------20p17---------------17-20p17--------|
 |-19b21-----------19b21==(19)r-----------19b21==|
 |-----------------------------------------------|
 |-----------------------------------------------|
 |-----------------------------------------------|

[Em/A] Q. [Dadd4/A] E +H [A] Q. [Dadd4/A] E +H
 
 |--------------------------------------------|----------------------------------------------|
 |---5-----------3------(3)-------------------|--2-----------------3-(3)---------------------|
 |---0-----------0------(0)-------------------|--2-----------------0-(0)---------------------|
 |---5-----------4------(4)-------------------|--2-----------------4-(4)---------------------|
 |---0-----------0------(0)-------------------|--0-----------------0-(0)---------------------|
 |--------------------------------------------|----------------------------------------------|

|
|~~~~~~~ ~~~~~~~~~~~~ ~~
| +Q S S E +E S S +E S S S S S S S S E E S S S S S S
 
 |--------17----------------------------------|----------------------------------------------|
 |-----------20-------------------------17----|-17-------------------------------------------|
 |-(19)r--------19b21==(19)r-17-19-(19)----17-|-17p16----17-17-------17--17-17-17-17-17------|
 |--------------------------------------------|-------19-------19-19--------------------19---|
 |--------------------------------------------|----------------------------------------------|
 |--------------------------------------------|----------------------------------------------|

[Em/A] Q. [Dadd4/A] E +H [A] Q. [Dadd4/A] E +H
 
 |-------------------------------------------|----------------------------------------------|
 |--5---------3-----(3)----------------------|---2----------3---------(3)-------------------|
 |--0---------0-----(0)----------------------|---2----------0---------(0)-------------------|
 |--5---------4-----(4)----------------------|---2----------4---------(4)-------------------|
 |--0---------0-----(0)----------------------|---0----------0---------(0)-------------------|
 |-------------------------------------------|----------------------------------------------|

|
| ~~~~ ~~~~~~~~~~~~
| |--3--|
| E. S E S S +S S E S S S E +Q S S S S +Q S S S S
 
 |-------------------------------------------|-------17-20-17---------------17----17--------|
 |-17-----17----17-(17)----17-------17-20b22-|-(20)-----------20b22==(20)r-----20-----------|
 |-17-----17----17-(17)----17----17----------|---------------------------------------19b21==|
 |-----19----19---------19----19-------------|----------------------------------------------|
 |-------------------------------------------|----------------------------------------------|
 |-------------------------------------------|----------------------------------------------|

[Em/A] Q. [Dadd4/A] E +H
 
 |------------------------------------------------------------|
 |---5--------------------------3-----(3)---------------------|
 |---0--------------------------0-----(0)---------------------|
 |---5--------------------------4-----(4)---------------------|
 |---0--------------------------0-----(0)---------------------|
 |------------------------------------------------------------|

|
| ~~~~~~~
| +S S S S +S S S S +E S S +S S S S
 
 |-------17---------------------------------------------------|
 |----------20----------------------------17---------17----20-|
 |-(19)r-------19b21==(19)r-19-17-19-(19)----17-(17)-17-------|
 |------------------------------------------------------19----|
 |------------------------------------------------------------|
 |------------------------------------------------------------|

[A] Q. [Dadd4/A] E +H
 
 |-------------------------------------------|
 |--2------------3---------(3)---------------|
 |--2------------0---------(0)---------------|
 |--2------------4---------(4)---------------|
 |--0------------0---------(0)---------------|
 |-------------------------------------------|

|
| ~~~~~ ~~~~~~~~~~~~
| Q S S S S +Q S S S S
 
 |--------17-20p17---------------17-17-17----|
 |-20b22-----------20b22==(20)r-----------20-|
 |-------------------------------------------|
 |-------------------------------------------|
 |-------------------------------------------|
 |-------------------------------------------|

[Em/A] Q. [Dadd4/A] E +H [A]Q. [Dadd4/A]E +H
 
 |-------------------------------------------------|----------------------------------------|
 |--5------------------3-----(3)-------------------|-2--------------3-(3)-------------------|
 |--0------------------0-----(0)-------------------|-2--------------0-(0)-------------------|
 |--5------------------4-----(4)-------------------|-2--------------4-(4)-------------------|
 |--0------------------0-----(0)-------------------|-0--------------0-(0)-------------------|
 |-------------------------------------------------|----------------------------------------|

|
| E. S +E E +S S +E S E. S E +S S S E S S S S +E. +S
 
 |-------------------------------------------------|----------------------------------------|
 |-20----20-----(20)--20----(20)-20----(20)-17-----|-5--5---(5)--------5----5---------------|
 |-19b21-19b21==(19)r-19b21r(19)-19b21r(19)-17-----|-5--5b6-(5)--------5----5-7b9==(7)r(7)--|
 |---------------------------------------------19\-|------------7-5-7-----7-----------------|
 |-------------------------------------------------|----------------------------------------|
 |-------------------------------------------------|----------------------------------------|

[Em/A]Q. [Dadd4/A]E +H
 
 |--------------------------------|
 |-5--------------3-(3)-----------|
 |-0--------------0-(0)-----------|
 |-5--------------4-(4)-----------|
 |-0--------------0-(0)-----------|
 |--------------------------------|

|
| S E +S S S E +E S S S S E
 
 |--------------------------------|
 |-5--5---(5)-----------5---5-5-5-|
 |-5--5b6-(5)-----------5---5-5-5-|
 |------------7-5-7-(7)---7-------|
 |--------------------------------|
 |--------------------------------|

[A] Q. [Dadd4/A]E +H [Em/A]Q. [Dadd4/A]E +H
 
 |----------------------------|--------------------------|
 |--2----3---(3)--------------|-5------------3-(3)-------|
 |--2----0---(0)--------------|-0------------0-(0)-------|
 |--2----4---(4)--------------|-5------------4-(4)-------|
 |--0----0---(0)--------------|-0------------0-(0)-------|
 |----------------------------|--------------------------|

|
| Q. S S S S S S S S S S S S S S S S E S E. E E
 
 |----------------------------|--------------------------|
 |----------------------------|--------------------------|
 |-/9----9-9--9s7-7-7s5-5-5s4-|-4--4s2-2-2s4-4--4s2--2-2-|
 |----------------------------|--------------------------|
 |----------------------------|--------------------------|
 |----------------------------|--------------------------|

Freely Q=80
[A] W
 
 |--------------------------------:
 |--2-----------------------------:
 |--2-----------------------------:
 |--2-----------------------------:
 |--0-----------------------------:
 |--------------------------------:

|
| S E. S S S S +H
 
 |--------------------------------:
 |--------13----13-15b17==(15)----:
 |-13s14-----14-------------------:
 |--------------------------------:
 |--------------------------------:
 |--------------------------------:

+W +H H
 
 |-------------------------:-------------------*|
 |--(2)--------------------:--(2)--------------*|
 |--(2)--------------------:--(2)--------------*|
 |--(2)--------------------:--(2)--------------*|
 |--(0)--------------------:--(0)--------------*|
 |-------------------------:-------------------*|

|
| ~~~~~~~~~~~~~~
| +Q. +E +H +Q +Q H
 
 |-------------------------:-------------------*|
 |-(15)r==(15)b17==(15)----:-(15)r=(15)\-------*|
 |-------------------------:-------------------*|
 |-------------------------:-------------------*|
 |-------------------------:-------------------*|
 |-------------------------:-------------------*|


Important: The song above is NOT stored on the Chordie server. The original song is hosted at www.azchords.com. Chordie works as a search engine and provides on-the-fly formatting. Chordie does not index songs against artists'/composers' will. To remove this song please click here.

Text color:
Chord color:
Chord grids: 
Font size:    
Page size: 

A A5 Am D5 Dadd4/A Dsus4 Em/A
Rate #1 of 1 versions

Jango Player

Login - add to songbook

SHARE PAGE  



You need to log in to post comments