Guitar Tabs, Chords and Lyrics
Server problems seems to be fixed. Chordie has been experiencing problems with songs disappearing. These issues now seems to be fixed, but still verifying the fix. If you find anything strange, please email admin@chordie.com.


Walk in My Shadow  Free

Tuning: EADGBe
 
 E|------------------------------------------|

B|/18~~~~~~~~~~~~~~~~~~~~~~~~~~~~~~~~~~~~~~\|
 
 G|------------------------------------------|
 D|------------------------------------------|
 A|------------------------------------------|
 E|------------------------------------------|
 E|---------------------|--------------------|---------------------|---------------|
 B|---------------------|--------------------|---------------------|---------------|
 G|---------------------|--------------------|---------------------|---------------|
 D|-----5-5-----3-------|----5-5-----3-------|-----5-5-----3-------|----5-5----3---|
 A|---------3-5------3h5|--------3-5------3h5|---------3-5------3h5|-------3-5-----|
 E|3-3------------6b----|3-3-----------6b----|3-3-----------6b-----|3-3----------6b|

[G7]Well throat is dry, people
And my knees are weak
It's so damned hot, I can't even speak
[C7]Walk in my shadow
[G7]I just can't take it anymore
[D7]When I get you in the [C7]shadows
[G7]I gotta show you just what it's for[D5] [C5] [Bb5] [A5]
[G7]  
 
 E|---------------------|--------------------|---------------------|---------------|
 B|---------------------|--------------------|---------------------|-------------5b|
 G|---------------------|--------------------|---------------------|-------------5b|
 D|-----5-5-----3-------|----5-5-----3-------|-----5-5-----3-------|----5-5----3---|
 A|---------3-5------3h5|--------3-5------3h5|---------3-5------3h5|-------3-5-----|
 E|3-3------------6b----|3-3-----------6b----|3-3-----------6b-----|3-3------------|

[C7] [G7]  
 
 E|---------------------|--------------------|---------------------|--------------------|
 B|---------------------|--------------------|---------------------|--------------------|
 G|-----5-5-----3-------|----5-5-----3-------|---------------------|--------------------|
 D|---------3-5------3h5|--------3-5------3h5|-----5-5-----3-------|----5-5-----3-------|
 A|3-3------------6b----|3-3-----------6b----|---------3-5------3h5|--------3-5------3h5|
 E|---------------------|--------------------|3-3------------6b----|3-3-----------6b----|

[D7] [C7] [G7] [D5] [C5] [Bb5] [A5]  
 
 E|---------------------|----------------|----------------|-------------------|
 B|---------------------|----------------|----------------|-------------------|
 G|-----7-7-----5-------|----5-5-----3---|----------------|-------------------|
 D|---------5-7------3h5|--------3-5-----|----5-5-----3---|-------------------|
 A|5-5------------8b----|3-3-----------6b|--------3-5-----|12-12-10-10-8-8-7-7|
 E|---------------------|----------------|3-3-----------6b|10-10-8--8--6-6-5-5|

[G7]And I know baby
That it's a shady kind of deal, oh yeah
I just want to find out
How you feel
[C7]Walk in my shadow
I can't take it [G7]anymore
[D7]When I get you in the shadow
[C7]I'm gonna give you,
[G7]Give ya
Give ya
Give ya
Give ya
Give ya
Give ya
[G7]  
 
 E|---------------------|--------------------|---------------------|--------------|
 B|---------------------|--------------------|---------------------|--------------|
 G|---------------------|--------------------|---------------------|-------------5|
 D|-----5-5-----3-------|----5-5-----3-------|-----5-5-----3-------|----5-5----3--|
 A|---------3-5------3/5|--------3-5------3/5|---------3-5------3/5|-------3-5----|
 E|3-3------------6b----|3-3-----------6b----|3-3-----------6b-----|3-3-----------|

[C7] [G7]  
 
 E|---------------------|--------------------|--------------------|-----------------|
 B|---------------6b8~~~|--------------6b8~~~|--------------------|-----------------|
 G|----5-5-----3--------|----5-5-----3-------|--------------------|-----------------|
 D|--------3-5----------|--------3-5---------|----5-5-----3b------|----5-5-----3----|
 A|3-3------------------|3-3-----------------|--------3-5------3-5|--------3-5-----3|
 E|---------------------|--------------------|3-3------------6----|3-3-----------6--|

[D7] [C7] [G7] [D5] [C5] [Bb5] [A5]  
 
 E|----------------------|--------------------|------------------|------------------|
 B|----------------------|--------------6b8~~~|------------------|------------------|
 G|-----7-7-----5b-------|----5-5-----3-------|------------------|--3-5/7--5-3-5-3--|
 D|---------5-7-------3h5|--------3h5---------|----5-5-----3b----|5----------------5|
 A|5-5-------------8b----|3-3-----------------|--------3-5------3|------------------|
 E|----------------------|--------------------|3-3------------6--|------------------|

Solo
[G7]  
 
 E|6-6b----------------|----6-6b---------------------------13|---------------13--------|
 B|6-6b--8-6-8~~--6----|6---6-6b--8-6-8~~~--13p11----13b15---|13b15~~--13b15----13b15~~|
 G|-----------------7~~|--7-----------------------12---------|-------------------------|
 D|--------------------|-------------------------------------|-------------------------|
 A|--------------------|-------------------------------------|-------------------------|
 E|--------------------|-------------------------------------|-------------------------|

[C7]  
 
 E|-------------------------------------------|---------------------------------|
 B|13br15p11-13-13~~--11h13p11\10----------6-3|-------------------5-3-------3b--|
 G|-------------------------------12-12~~-----|-5b7~~--3h5~-5p3---5-3-------3b--|
 D|-------------------------------------------|-----------------5-----5-3-5----5|
 A|-------------------------------------------|---------------------------------|
 E|-------------------------------------------|---------------------------------|

[G7]  
 
 E|-------------3-----------|-------------------|----------------------------|
 B|6b8-6pb8~~~----3-6-------|5p3b---------------|-------------------------5p3|
 G|-------------------5br7~~|5p3b---------------|-------------------------5p3|
 D|-------------------------|-----5--3----------|---------------------3b-----|
 A|-------------------------|----------5-3---3--|--1---1-1h3p1-1-3-5---------|
 E|-------------------------|--------------6---6|3---3-----------------------|

[D7] [C7]  
 
 E|---------------10~~~--------|------13---------------------13-------------------------|
 B|11b-8----8~~~--------8------|13b15----13br15-15b17--13/15----13\11-13~~~--11---------|
 G|------10---------------10b12|------------------------------------------------12~~-10\|
 D|----------------------------|--------------------------------------------------------|
 A|----------------------------|--------------------------------------------------------|
 E|----------------------------|--------------------------------------------------------|

[G7]  
 
 E|----------------------|--------------------|
 B|----6-----------------|-------5-6b8-6-6b8~~|
 G|5/7---5-7-5-3b--------|-5p3---5------------|
 D|---------------5-5~~~-|-----5--------------|
 A|----------------------|--------------------|
 E|----------------------|--------------------|

[G7]  
 
 E|---15-15-------------------------15---------|---------------------------|
 B|15-------15-18b20~~-18-18b20~~~-----18p15---|---------------------------|
 G|------------------------------------------17|-17pbr19-15-17~~~--17p15---|
 D|--------------------------------------------|-------------------------17|
 A|--------------------------------------------|---------------------------|
 E|--------------------------------------------|---------------------------|
 E|----------------------------------------------------------|-----------------------------------|
 B|18b20----------18b20~~-18-15-18b20~~-18-15-----------17-15|18b20-18b20-18b20-18b20-18b20-18b20|
 G|17----15-17p15-----------------------------17br19p15-17-15|17----17----17----17----17----17---|
 D|----------------------------------------------------------|-----------------------------------|
 A|----------------------------------------------------------|-----------------------------------|
 E|----------------------------------------------------------|-----------------------------------|

[C7]  
 
 E|---------------------------------------------|-------------------------------------------|
 B|18p15----18b20-18b20~~~--18b20-18~~--18p15---|18b20-18~~-18p15---------------------------|
 G|------17-----------------------------------17|-----------------17--17br19-17pbr19-17b19~~|
 D|---------------------------------------------|-------------------------------------------|
 A|---------------------------------------------|-------------------------------------------|
 E|---------------------------------------------|-------------------------------------------|

[G7]  
 
 E|15----------------------------------------------|--------------------------------------|
 B|---18p15----------------15-18p15----------------|-17-15----------17p15-----------------|
 G|---------17-15--17pbr19----------17-17br19p15---|-17-15----------17p15-17b19-15~-17-15~|
 D|----------------------------------------------17|-------17-15-17-----------------------|
 A|------------------------------------------------|--------------------------------------|
 E|------------------------------------------------|--------------------------------------|

[D7] [C7]  
 
 E|----------------------------------------|---------------------18p15-------------------------|
 B|----------------------15----------------|18pbr20-18b20~~~--18-------18-18pbr20-15-15--------|
 G|17-15-17b19--17b19~~~----17-15b---------|--------------------------------------15-15--------|
 D|--------------------------------17-15-17|--------------------------------------------17-/12\|
 A|----------------------------------------|---------------------------------------------------|
 E|----------------------------------------|---------------------------------------------------|

[G7]  
 
 E|------------------------|----------------------------|
 B|6-6p3-------------------|----------------------------|
 G|------5-5p3-------------|-------------5p3---3-5b7~~~~|
 D|------------5-3---------|-----------------5----------|
 A|----------------5--3-1--|--5/8-8-8-8-----------------|
 E|-----------------------3|3---------------------------|

[G7]wooooaaahhh Woaaah woaaahhhoh come on! dig!
 
 E|---------------------|--------------------|--------------------|-------------------|
 B|---------------------|--------------------|--------------------|-------------------|
 G|---------------5b7~~~|--------------5b7~~~|--------------5b7~~~|--------------5b7~~|
 D|----5-5-----3--------|----5-5-----3-------|----5-5-----3-------|----5-5-----3------|
 A|--------3-5----------|--------3-5---------|--------3-5---------|--------3-5--------|
 E|3-3------------------|3-3-----------------|3-3-----------------|3-3----------------|

[C7]Woaaaaaahh woahhh woooaah[G7]
 
 E|---------------------|--------------------|--------------------|----------------|
 B|---------------6b8~~~|--------------6b8~~~|--------------------|--------------5b|
 G|----5-5------3-------|----5-5-----3-------|--------------------|--------------5b|
 D|--------3-5----------|--------3-5---------|----5-5-----3-------|----5-5-----3---|
 A|3-3------------------|3-3-----------------|--------3-5------3-5|--------3-5-----|
 E|---------------------|--------------------|3-3-----------6b----|3-3-------------|

[D7]When I get you in the shadows
[C7]Baby baby baby baby babe
I gotta show ya
[G7]Just what it's for!
[D7] [C7] [G7]  
 
 E|-----------------|-----------|----------------|------3----------|
 B|-----------------|-----------|----------------|------3----------|
 G|-----7-7-----5---|3----------|----------------|------4----------|
 D|---------5-7-----|2-------/9\|----5-5-----3---|3--4--5----------|
 A|5-5------------8b|3----------|--------3-5-----|-----------------|
 E|-----------------|-----------|3-3-----------6b|---------------3\| 


Important: The song above is NOT stored on the Chordie server. The original song is hosted at www.azchords.com. Chordie works as a search engine and provides on-the-fly formatting. Chordie does not index songs against artists'/composers' will. To remove this song please click here.

Text color:
Chord color:
Chord grids: 
Font size:    
Page size: 

A5 Bb5 C5 C7 D5 D7 G7
Rate #1 of 2 versions

Login - add to songbook

SHARE PAGE  




You need to log in to post comments