Guitar Tabs, Chords and Lyrics
Server problems seems to be fixed. Chordie has been experiencing problems with songs disappearing. These issues now seems to be fixed, but still verifying the fix. If you find anything strange, please email admin@chordie.com.


Bang Pop   Free Energy

 
 -------------------------------------------------------------------------------
 -------------------------------------------------------------------------------

 


 (Standard Tuning)


 --> INTRO <--


 


 

 
 e|------10-12b14r12-10--12b14-14-12--12b14-12-10--12b14-14-12--12-10----|
 B|-9h11--------------------------------------------------------------11-| KEEP
 G|----------------------------------------------------------------------| GOING!
 D|----------------------------------------------------------------------| | |
 A|----------------------------------------------------------------------| | |
 E|----------------------------------------------------------------------| V V
 e|-10-12b14r12-10--12b14-14-12--12b14-12-10--12b14-14-12--12p10-----------10-|
 B|---------------------------------------------------------------11p9--11----| NICE!
 G|---------------------------------------------------------------------------|
 D|---------------------------------------------------------------------------|
 A|---------------------------------------------------------------------------|
 E|---------------------------------------------------------------------------|

 


 


 


 --> VERSE <--


 


 

 
 e|-0-0-000---2-2---0-0-000---2-2-------------------|
 B|-2-2-222---3-3---0-0-000---3-3-------------------|
 G|-2-2-222---2-2---1-1-111---2-2----FOUR-TIMES-----|
 D|-2-2-222---0-0---2-2-222---0-0-------------------|
 A|-0-0-000---------2-2-222-------------------------|
 E|-----------------0-0-000-------------------------|

 


 


 


 --> CHORUS <--


 |=A=========|


 

 
 e|---------------------------------------------------------------------------|
 B|--------------------------15h17--------------------------------------------| THERE'S
 G|-14~~--16p14--------16p14--------18-16---16p14-----------14~~--16p14-------| MORE!
 D|-------------16p14-----------------------------16p14--16-------------16p14-| | |
 A|---------------------------------------------------------------------------| | |
 E|---------------------------------------------------------------------------| V V
 e|---------------14-----------------------------| #####################################
 B|--------15h17-----14--------------------------| SWEET! ## NOTE A: ##
 G|--16p14--------------16--16p14-----------14~~-| ## Play the 16p14 using your first ##
 D|-------------------------------16p14--16------| ## and third finger, then you can ##
 A|----------------------------------------------| ## use your second and fourth to ##
 E|----------------------------------------------| ## play the 15h17! ##

 


 [#####################################] 


 


 --> VERSE <--


 


 

 
 e|-0-0-000---2-2---0-0-000---2-2---------------------|
 B|-2-2-222---3-3---0-0-000---3-3---------------------|
 G|-2-2-222---2-2---1-1-111---2-2----TWELVE-TIMES-----|
 D|-2-2-222---0-0---2-2-222---0-0---------------------|
 A|-0-0-000---------2-2-222---------------------------|
 E|-----------------0-0-000---------------------------|

 


 


 


 --> CHORUS <--


 

 
 e|---------------------------------------------------------------------------|
 B|--------------------------15h17--------------------------------------------| PLAY
 G|-14~~--16p14--------16p14--------18-16---16p14-----------14~~--16p14-------| MORE!
 D|-------------16p14-----------------------------16p14--16-------------16p14-| | |
 A|---------------------------------------------------------------------------| | |
 E|---------------------------------------------------------------------------| V V
 e|---------------14-----------------------------|
 B|--------15h17-----14--------------------------| SWEET!
 G|--16p14--------------16--16p14-----------14~~-|
 D|-------------------------------16p14--16------|
 A|----------------------------------------------|
 E|----------------------------------------------| 

 


 


 oh man


 it's a


 

 
 --> SOLO <-- /--3---\ /--3---\ /--3---\

 


 |=B======| |=C========================|


 

 
 e|-------------------------------------------------------------------------------------|
 B|-16b18-14-------------------------------------------17----------17-------17-------17-| DON'T
 G|----------14~-16b18r16-14------16b18r16-14~~~-16b18----16-16h18----16h18----16h18----| STOP!
 D|--------------------------14~~-------------------------------------------------------| | |
 A|-------------------------------------------------------------------------------------| | |
 E|-------------------------------------------------------------------------------------| V V
 /--3---\ /--3---\ /--3---\ /--3---\ /--3---\ /--3---\ /-3-\ /-3-\ /-3-\ /-3-\ /-3-\
 e|---------------------------------------------------------------------------------------|
 B|-22-22-22-19-19-19-17-17-17-14-14-14-12-12-12-10-10-10-9-9-9-7-7-7-5-5-5-2-2-2-0-0-0---| ALMOST
 G|-------------------------------------------------------------------------------------2-| DONE!
 D|---------------------------------------------------------------------------------------| | |
 A|---------------------------------------------------------------------------------------| | |
 E|---------------------------------------------------------------------------------------| V V

 


 


 /-3-\ /-3-\


 

 
 e|-------5/7-5-7/9-7-9/12-9-7-7~~\5-----5-----5-7/9-5~~-| ##################################
 B|-5/7-5----------------------------5h7---5h7-----------| WHEW! ## NOTE B: ##
 G|------------------------------------------------------| ## Bend using fingers one, two, ##
 D|------------------------------------------------------| ## and three, and fret the 17 ##
 A|------------------------------------------------------| ## with your pinky. Radical! ##
 E|------------------------------------------------------| ##################################

 


 


 [##############################################]## NOTE C: ##






 [##############################################] 


 --> VERSE <--


 


 

 
 e|-0-0-000---2-2---0-0-000---2-2-------------------|
 B|-2-2-222---3-3---0-0-000---3-3-------------------|
 G|-2-2-222---2-2---1-1-111---2-2----FOUR-TIMES-----|
 D|-2-2-222---0-0---2-2-222---0-0-------------------|
 A|-0-0-000---------2-2-222-------------------------|
 E|-----------------0-0-000-------------------------|

 


 


 


 --> CHORUS <--


 THERE'S NO GUITAR, TWICE!


 


 --> CHORUS <--


 it's a little different this time!


 

 
 e|---------------------------------------------------------------------------|
 B|--------------------------15h17--------------------------------------------| SO
 G|-14~~--16p14--------16p14--------18-16---16p14-----------14~~--16p14-------| CLOSE!
 D|-------------16p14-----------------------------16p14--16-------------16p14-| | |
 A|---------------------------------------------------------------------------| | |
 E|---------------------------------------------------------------------------| V V
 e|---------------14-14-12~~~-14p12--------------|
 B|--------15h17--------------------14p12-10~~~~-| YOU DID IT!
 G|--16p14---------------------------------------| NICE GOING!
 D|----------------------------------------------|
 A|----------------------------------------------|
 E|----------------------------------------------| 


Important: The song above is NOT stored on the Chordie server. The original song is hosted at www.azchords.com. Chordie works as a search engine and provides on-the-fly formatting. Chordie does not index songs against artists'/composers' will. To remove this song please click here.

This song is displayed as text-only. Transposing and tuning is only available for chordpro-songs.
Rate #1 of 1 versions

Jango Player

Login - add to songbook

SHARE PAGE  




You need to log in to post comments