Guitar Tabs, Chords and Lyrics
Login is temporarily disabled for some users. Do not panic. Will be back in an hour or two. DO NOT REREGISTER!!


Chloroform Perfume   From Autumn to Ashes

 
 |--------------------------------------------------------------------|
 |-----------0~-----------------------0~----------------------0~------|
 |--------0--0~-----------------------0~--------------------0-0~------|
 |-----9------------10-----9h10----9--------10------------------------|
 |--7------------7------7-------7--------7------7--7h9----9------9----|
 |-----------------------------------------------------10----------10-|
 ------------------------------|
 ---------------0~---------0~--|
 ---------------0~---------0~--|
 ------------------------------|
 -9-9h10p9----9----9----9------|
 ----------10--------10--------|

 


 


 Pre-Chorus


 

 
 |----0-----0------|
 |----1-----0------|
 |----0-----0------|x2
 |----2-----2------|
 |----3-----2------|
 |----x-----0------|

 


 "You said so much/without ever parting your lips"


 


 Chorus - Strumming pattern not tabbed


 

 
 |----x-----x-----x-----|
 |----x-----x-----x-----|
 |----9-----7-----5-----|x 4
 |----9-----7-----5-----|
 |----7-----5-----3-----|
 |----x-----x-----x-----|

 


 


 Solo - bars separate sections


 

 
 |------------------|-------|-------------|
 |-3--1----0h1p0----|--0----|-1-0-1-3-1-0-|
 |-------0-------0--|-----0-|-------------|
 |------------------|-------|-------------|
 |-----Repeat-4x----|-------|-------------|
 |------------------|-------|-------------|
 |----------------------------------------|
 |-1---0-------0--1---0--------1/3--1-1--0|
 |---------0---------------0--------------|
 |----------------------------------------|
 |----------------------------------------|
 |----------------------------------------|
 |3-2-0---0-----------------------|
 |------3---1-3-0-1---------------|
 |------------------2-4-0-2---0---|
 |--------------------------4---2-|
 |--------------------------------|
 |--------------------------------|

 


 


 During Solo and Bridge after Solo


 

 
 |----x-----x------x------x----|
 |----x-----x------x------x----|
 |----9-----7------9-----10----|
 |----9-----9-----11-----12----|
 |----7-----9-----11-----12----|
 |----x-----x------x------x----|

 


 


 Ending w/ Heavy Distortion


 

 
 |----x-----x-----x---|
 |----x-----x-----x---|
 |----9-----7-----5---|
 |----9-----7-----5---|
 |----7-----5-----3---|
 |----x-----x-----x---|


Important: The song above is NOT stored on the Chordie server. The original song is hosted at www.azchords.com. Chordie works as a search engine and provides on-the-fly formatting. Chordie does not index songs against artists'/composers' will. To remove this song please click here.

This song is displayed as text-only. Transposing and tuning is only available for chordpro-songs.
Rate #1 of 1 versions

Login - add to songbook

SHARE PAGE  




You need to log in to post comments