Guitar Tabs, Chords and Lyrics
Login is temporarily disabled for some users. Do not panic. Will be back in an hour or two. DO NOT REREGISTER!!


Take Her to the Music Store   From Autumn to Ashes

 
 ------
 ------ Hold for approximately 10 seconds
 ------ then do a pickslide

 


 [--2---]  


 [--2---]--0---


 


 

 
 ---8--------8---------7--------5--------5---------7--------8---------
 ------0--------0---------0--------0--------0---------0--------0------
 ---------0--------0---------0--------0--------0---------0--------0---
 -------------------------------------------------
 ---10--------10--------8--------7--------5------- I think thats the basic
 -------0---------0--------0--------0------------- way it goes, there are some
 ----------0---------0--------0--------0---------- changes in there like instead
 ------------------------------------------------- of hitting the G or E twice they
 ------------------------------------------------- hit other notes twice or go back

 


 to certain notes again


 


 

 
 ---9------9------9----------------------------------------------------------------
 ---9------9------9----------------------------------------------------------------
 ---7-7777-7-7777-7-7------7------7--10-----10-----10-12----------12----------12---
 -------------------8-8888-8-8888-8--8-8888-8-8888-8--10-10101010-10-10101010-10---
 --7--7--7-----7-s-9--5---5---7--7--7-s-9--9--9-s-11-11-11-s-12------12---
 --x--x--x--x--x-s-x--x---x---x--x--x-s-x--x--x-s-x--x--x--s--x-------x---
 --5--5--5--x--5-s-7--3---3-s-5--5--5-s-7--7--7-s-9--9--9--s-10--10--10---
 --7----x--7-s-9--12--12-s-14-14-14-s-12--12--12-s-11-11-11-s--9--9-----
 --x----x--x-s-x---x---x-s--x--x--x-s--x--x----x-s-x--x--x--s--x--x-----
 --5--x----5-s-7--10--10-s-12-12-12-s-10--10--10-s-9--9--9--s--7--7-----
 -----x-----------------------------------------------------------------
 -------------
 -------------
 --9-s-7--7---
 --x-s-x--x---
 --7-s-5--5---
 -------------
 ----------------------------------------------
 ----------------------------------------------
 ----------------------------------------------
 ----------------------------------------------
 --2-2-2-2-2--2-2-2-2-2--2-2-2-2-2--2-2-2-2-2--
 --0-0-0-0-0--0-0-0-0-0--0-0-0-0-0--0-0-0-0-0--
 -----------------------------------------------------
 -----------------------------------------------------
 -----------------------------------------------------
 -----------------------------------------------------
 --7--9-h-10-9--7--5--7--9-h-10--9--3--7--9-h-10--9---
 -----------------------------------------------------

 


 


 Harmony


 

 
 -----------------------------------------------------
 -----------------------------------------------------
 --7--9-h-10-9--7--5--7--9-h-10--9--3--7--9-h-10--9---
 -----------------------------------------------------
 -----------------------------------------------------
 -----------------------------------------------------
 ---------------
 --------------- Then back to the slide progression
 --7-7-7-7---5-- with the octaves
 --7-7-7-7---5--
 --5-5-5-5---3--
 ---------------


Important: The song above is NOT stored on the Chordie server. The original song is hosted at www.azchords.com. Chordie works as a search engine and provides on-the-fly formatting. Chordie does not index songs against artists'/composers' will. To remove this song please click here.

This song is displayed as text-only. Transposing and tuning is only available for chordpro-songs.
Rate #1 of 3 versions

Login - add to songbook

SHARE PAGE  



You need to log in to post comments