Guitar Tabs, Chords and Lyrics
Server problems seems to be fixed. Chordie has been experiencing problems with songs disappearing. These issues now seems to be fixed, but still verifying the fix. If you find anything strange, please email admin@chordie.com.


Magic Hour  Fruit Bats

Fruit Bats
[C]i'll wait[F] to see a cl[G]oud shaped like the ga[C]rden state
[F]and little st[G]ars the cars at tur[C]npike gates
[F]and the m[G]oon is delawa[C]re, o[F]hh [G]ohh
[C]i'll wait, i[F]'ll wait f[G]or the magic [C]hour
[F]go and fin[G]d myself the bigg[C]est tree
[F]cut it d[G]own and count the ri[C]ngs, [F]ohh [G]ohh
[Bb]time was once when there was [D]rustling in the reeds
[A]tiny tumbleweeds, [E]pigeons on the p[G]orch
and there was d[D]umb love fallers
[A]carpet crawlers[E] spinning in the d[G]eck
[Bb] [Eb] [F]  
 
 -------10-10br---------------------
 ------------------------8------10--
 --8s10---------10------------------ x2
 --------------------6s8---8s10-----
 -----------------------------------
 -----------------------------------

[C] [F] [G] 
 
 -----------------------------------------------
 ----------------------------------10-------12--
 -------9--------------------------------------- x2
 ----------10s12-12------------8s10---10s12-----
 --8s10-------------10s12-12--------------------
 -----------------------------------------------

[Bb]time was once when there was [D]rustling in the reeds
[A]tiny tumbleweeds, [E]pigeons on the p[G]orch
and there were d[D]umb love fallers
[A]carpet crawlers[E] spinning in the d[G]eck
[C]oh[F]h [G]ohh, [C]oh[F]h [G]ohh
[C]i'll wait[F] till i see a c[G]loud shaped like the ga[C]rden state
[F]and little st[G]ars the cars at tu[C]rnpike gates
[F]and the m[G]oon is del[C]aware, o[F]hh [G]ohh
[C]i'll wait[F] for the m[G]agic hour, [C]i will wait
[F]made this s[G]ong because i m[C]ade mistakes
[F]and i will al[G]ways love y[C]ou, oh[F]h
i will al[G]ways love y[C]ou, oh[F]h
i will al[G]ways love y[C]ou
Last verse background:
 
 ------------------------------8-------10--
 -------8--8h10-8--------------------------
 -----------------9h10-9------------------- x2
 -------------------------8s10---10s12-----
 --8s10------------------------------------
 ------------------------------------------
 ---------------------------------- ----------
 ----------------------10------12-- ----------
 -------9--9br--9------------------ x3 -------9--
 -----------------8s10---10s12----- ----------
 --8s10---------------------------- --8s10----
 ---------------------------------- ----------


Important: The song above is NOT stored on the Chordie server. The original song is hosted at www.azchords.com. Chordie works as a search engine and provides on-the-fly formatting. Chordie does not index songs against artists'/composers' will. To remove this song please click here.

Text color:
Chord color:
Chord grids: 
Font size:    
Page size: 

A Bb C D E Eb F G
Rate #1 of 3 versions

Jango Player

Login - add to songbook

SHARE PAGE  



You need to log in to post comments