Guitar Tabs, Chords and Lyrics
Update 25:10. 13:00. Site is back up running again. Songbooks are recovered. Woring on getting search back up..


Place Position  Fugazi

INTRO:
[A] [A]  
 
 e|----------------- ----------------- -------|
 B|----------------- ----------------- --2----|
 G|-2-2-2-2-2-2-2--- -14-14-14-14-14-- --2----|
 D|-2-2-2-2-2-2-2--- ----------------- --2----|
 A|-0--------------- ----------------- --0----|
 E|----------------- ----------------- -------|
 |--P.M.----etc. play this over------------| let this chord ring,

previous measure then strum
with snare drum
VERSE:
All origins are accidental
You've got no papers & no roads lead home anymore
Chance is the root of all
Place position all maps are
Random all scales are wrong
Guitar 1 (Right Speaker)
 
 e|----------------------- ------------------- -------------------|
 B|----------------------- -----------8------- -------------------|
 G|----------------------- ------9-10---9-----x2 ------6-6-7-7-9-6--|
 D|-----6~-----------5\2-- --7-7----------7-6- --4-4--------------|
 A|----------------------- ------------------- -------------------|
 E|-0-0---------0-0------- ------------------- -------------------|

Guitar 2 (Left Speaker) A
 
 e|-------------------------- ------------------- --------------------|
 B|-------------------------- ------------------- --xxxxxx------------|
 G|-------------------------- ------------------- --xxxxxx------------|
 D|-----6---------------5-2-- --77777777777------ --xxxxxx-etc.-------|
 A|-------------------------- --77777777777------ --xxxxxx------------|
 E|-0-0---0-0-0-0-0-(0)------ --55555555555-etc.- --------------------|
 |PM--------------------------------------------------------------------|

Then play:
[A#]  
 
 e|---6----------------|
 B|---6---6h9p6--------|
 G|---7----------7~----|
 D|---8----------------|
 A|---8----------------|
 E|---6----------------|

VERSE:
Legal-Illegal
No passion for the difference
Legal-Illegal
False premise for the nation
Then Play:
e|-[A#]---- hit this
B|-11-- chord with
G|-10-- downstrokes
D|-8--- and upstrokes
A|----- repeatedly
E|-----
MIDDLE SECTION:
May all your border be porous
Free transmission
Smear genetics c est la vie
[A]  
 
 e|-------------------|
 B|-2---2---2---2-----|
 G|-2---2---2---2-----|
 D|-2---2---2---2-----|
 A|-0---0---0---0-----|
 E|-------------------|

CHORUS:
Yawn Yawn Yawn
I can't stifle my boredom
1st time (then see BRIDGE)
[C#] [D]  
 
 G|-------------------------------------- -----------|
 D|-------------------------------------- -66666677--|
 A|--(0)-/6---0-/6---0-/6---0-/6-0/6-0/6- -44444455--|
 E|-------------------------------------- -----------|

BRIDGE:
So why not act your age
Fear of contagion
The violence of a
fence builder's dream that
masks the phrasing of
"all the pleasures of home"
[A] [A#] [B] [C] [C#]  
 
 B|-------------------------------------|
 G|--2----------------------------------|
 D|--2-------3------4-----5------6*-----|
 A|--0-------1------2-----3------4------|
 E|-------------------------------------|

* slowly bend this string
VERSE
OUTRO:
Now I want to go home
[A#] [A]  
 
 e|---------------- -----|
 B|-11-----------2- -----|
 G|-10-----------2- let --2--|
 D|-8--etc.------2- ring --2--|
 A|--------------0- -----|
 E|---------------- -----|
 --------------------------------------------------------------------------

That's it, great song off "End Hits". It's best to play Guitar 1 (Ian's parts)
with just one guitar.

Important: The song above is NOT stored on the Chordie server. The original song is hosted at www.azchords.com. Chordie works as a search engine and provides on-the-fly formatting. Chordie does not index songs against artists'/composers' will. To remove this song please click here.

Text color:
Chord color:
Chord grids: 
Font size:    
Page size: 

A A# B C C# D
Rate #2 of 2 versions

Jango Player

Login - add to songbook

SHARE PAGE  




You need to log in to post comments