Guitar Tabs, Chords and Lyrics
Major upgrade!! After one year development the new version of Chordie is now online! Please give feedback.


One Night a Day  Garth Brooks

Garth Brooks
One Night A Day
Piano Intro: G Bm|Em G/F|C C|G D7|
[G] [Bm]  
There's not alot of things to---- do
 
 |-------------------------------------------------------|
 |----------------------0--------------------------------|
 |-0-------------0-------------------------4-------------|
 |-------0-----------------------------4-----------------|
 |---------------------------------2---------------------|
 |-3-----------------------------------------------------|

[Em] I would'nt want rath--e[G/F]r do with you---
 
 |-------------------------------------------------------|
 |--------------0---------------------------0------------|
 |----------0--------------------------------------------|
 |-------2-----------------------------3-----------------|
 |-------------------------------------------------------|
 |-0-----------------------------1-----------------------|

[C(9)]  
 
 guess i'm--- funny--- that---
 |-------------------------------------------------------|
 |-------------------3--------------3--------------------|
 |----------------0-------------0------------------------|
 |-----------2---------------2---------------------------|
 |---------3---------------------------------------------|
 |-------------------------------------------------------|

[G] way---[D7]
 
 |-------------------------------------------------------|
 |-0-----------0---1----------1--------------------------|
 |---------0-------------2--------2----------------------|
 |------0----------0-------------------------------------|
 |-------------------------------------------------------|
 |-3-----------------------------------------------------|


Important: The song above is NOT stored on the Chordie server. The original song is hosted at www.azchords.com. Chordie works as a search engine and provides on-the-fly formatting. Chordie does not index songs against artists'/composers' will. To remove this song please click here.

Text color:
Chord color:
Chord grids: 
Font size:    
Page size: 

Bm C(9) D7 Em G G/F
Rate #1 of 9 versions

Login - add to songbook

SHARE PAGE  



You need to log in to post comments