Guitar Tabs, Chords and Lyrics
Major upgrade!! After one year development the new version of Chordie is now online! Please give feedback.


She's Every Woman  Garth Brooks

Intro :
upstroke
 
 |--------------2------------|--4-----4-----5---2-----------|
 |--5---------------2^4------|----5-------5-----------------|
 |----------2-------4--------|------2-----------------------|
 |------4-----------4--------|------------------------------|
 |--2---------------2--------|------------------2-----------|
 |---------------------------|--2-------2-------------------|

She's sun and [E]rain, she's fi[E/G#(1)]re and ice[A]
A little [B]crazy b[G#/C]ut it's ni[C#m]ce
And when [A]she gets mad, you b[E/G#(2)]est leave her al[B7sus4]one[B]
'Cause she'll [E]rage just li[E/G#(1)]ke a rive[A]r
Then she'll [B]beg you t[G#/C]o forgi[C#m]ve her
She's [A]every woman [B]that I've ever kno[E]wn
She's so New [E]York and t[E/G#(1)]hen L.A.[A]
And every [B]town al[G#/C]ong the w[C#m]ay[B]
She's [A]every place [E/G#(2)]that I've never [B7sus4]been[B]
She's making [E]love on r[E/G#(1)]ainy nigh[A]ts
She's a [B]stroll through C[G#/C]hristmas l[C#m]ights[B]
And she's [A]everyting I [B]want to do ag[E]ain[E] [B]
[C#m]It needs no expla[A]nation[A] [B]
[C#m]'Cause it all makes perfect [A]sense
[E]For when it [B]comes down to temp[A]tation[E/G#(2)]
She's on [F#m]both [E/G#(2)]sides [A]of the [B7sus4]fence[B]
[E] [E/G#(1)] [A]  
[B] [G#/C] [C#m] [B]  
[A] [E/G#(2)]  
[B7sus4] [B] [G#/C]  
No it needs no explanation
'Cause it all makes perfect sense
When it comes down to temptation
She's on both sides of the fence
 
 |--4---------------2--------|
 |----------5----------------|
 |------2-------2------------|
 |---------------------------|
 |---------------------------|
 |--2---------------2--------|

She's any[E]thing but t[E/G#(1)]ypical[A]
She's so [B]unpredi[G#/C]ctable[C#m]
Oh but [A]even at her [E/G#(2)]worst she ain't that [B7sus4]bad[B]
She's as [E]real as [E/G#(1)]real can be[A]
And she's [B]every f[G#/C]antasy[C#m]
Lord she's [A]every lover [B]that I've ever [C#m]had[B]
And she's [A]every lover [B]that I've never [(E]had[E/G#] [A] [B6] [B] [E)]

Important: The song above is NOT stored on the Chordie server. The original song is hosted at www.azchords.com. Chordie works as a search engine and provides on-the-fly formatting. Chordie does not index songs against artists'/composers' will. To remove this song please click here.

Text color:
Chord color:
Chord grids: 
Font size:    
Page size: 

A B B6 B7sus4 C#m E E/G# F#m G#/C
Rate #1 of 7 versions

Login - add to songbook

SHARE PAGE  



You need to log in to post comments