Guitar Tabs, Chords and Lyrics
Major upgrade!! After one year development the new version of Chordie is now online! Please give feedback.


You Move Me  Garth Brooks

Garth Brooks
You Move me
Sevens
Gsus2 - 3x023x
Both guitars capo II
Intro
[D] [A] [Em] [D] [A] [Gsus2]  
 
 e--0h2-0----0--------------0---------0h2-0----0--------------------
 B--3----3-----3-2-0------0-------0--------3-----3-2-3----3--3--3---
 G-----2----------------0-------0--------2---------------2-----2--2-
 D--0-----0---2---2----2---2---2---2--0-----0---2---2---0--0--0--0--
 A-----------0---------------------------------0--------------------
 E--------------------0--0----0--0---------------------3-----3------

This is how...
[D]  
 
 e-----------------0---0h2---
 B--3---3--3---3-3-3-3-3-----
 G----2---2--2---2-----------
 D---0---0--0---0---0--0-----
 A---------------------------
 E--3---3------3-------------

Verse
..me Life is..
[F#m] [D] [F#m] [G]  
 
 e---------2------------2--2---2---------2-------------------
 B-2---2-------2------3---3--3----2---2------2--0---0-0---0--
 G---2---2---2---0---2---2--2---2---2---2--2------0-----0----
 D--4---4---4---4---0--0---0--0----4---4--4---4--0---0-0---0-
 A-----------------------------------------------------------
 E-2--2----2--2-------------------2--2---2--2---3--3--3--3---

..guarantee
[D] [A]  
 
 e-0h2---2---0h2-0----:|---------------
 B-----3---3-------3--:|-2---2--0------
 G----2---2-----2---2-:|---2---2-2-----
 D-0----0----0----0---:|--2---2---2--0-
 A--------------------:|-0--0----------
 E--------------------:|---------------

Repeat untill the :| for second part of verse.
Fill before Chorus
[A] [Asus] [A]  
 
 e----------------0-------
 B--2---2--3---3------2---
 G----2------2------2-----
 D---2---2--2---2--2---2--
 A--0--0---0--0---0--0----
 E------------------------

Chorus
Oh....move me You.. ..I had You
[Bm] [G] [D] [F#m] [Bm] [G] [D] [A]  
 
 e--0-------------3------2---2-----------------3------2---2--0-------
 B------2---3--3------0----3---------2---3--3------0----3--------2---
 G----2------4------0-----2---2--2-2--2---4------0-----2---2---2-----
 D---2---2--4---4--0---0-0--0------------4---4--0---0-0--0----2---2--
 A--0--0--2---2-------------------------2--2-----------------0--0----
 E----------------3--3----------2---2----------3--3------------------

..move me Now I.. ..I am So
[Bm] [G] [D] [F#m] [Bm] [G] [D] [A]  
 
 e--0-------------3------2---2-----------------3------2---2--0-------
 B------2---3--3------0----3---------2---3--3------0----3--------2---
 G----2------4------0-----2---2--2-2--2---4------0-----2---2---2-----
 D---2---2--4---4--0---0-0--0------------4---4--0---0-0--0----2---2--
 A--0--0--2---2-------------------------2--2-----------------0--0----
 E----------------3--3----------2---2----------3--3------------------

you move me
[Gsus2]  
 
 e---------------------------
 B--0---0----0---0----0---0--
 G----2--------2--------2----
 D---0---0----0---0----0---0-
 A---------------------------
 E--3--3-----3--3-----3--3---

The second guitar over the acoustic in chorus
Fill
[A] [Asus] [A]  
 
 e----------------0-------
 B---------3------2-------
 G-----------2----2-------
 D-------------2--2-------
 A------------------------
 E------------------------

Coruse
[Bm] [G] [D] [F#m] [Bm] [G] [D] [A]  
 
 e-----------------------------------------------------------
 B-----------------3-----------------------------------------
 G-----------0-----------------------------------------------
 D-----4--4-----0------2s4--4s2-0----------------------------
 A--2------------------------------2s4-4s2-0--0h2-----4--2---
 E-----------------------------------------------------------

[Bm] [G] [D] [F#m] [Bm] [G] [D] [A] [Gsus]  
 
 e-----------------------------------------------------------------------
 B---------------3-----------------------------------------------------3-
 G-----------0----------------------------------0-------------------2----
 D----4-0--4---0---4-5-5s7-7s5--4--5s7-----4----------0----------5-------
 A--2-----------------------------------------2----2-----0---------------
 E-----------------------------------------------------------------------


Important: The song above is NOT stored on the Chordie server. The original song is hosted at www.azchords.com. Chordie works as a search engine and provides on-the-fly formatting. Chordie does not index songs against artists'/composers' will. To remove this song please click here.

Text color:
Chord color:
Chord grids: 
Font size:    
Page size: 

A Asus Bm D Em F#m G Gsus Gsus2
Rate #1 of 5 versions

Jango Player

Login - add to songbook

SHARE PAGE  



You need to log in to post comments