Guitar Tabs, Chords and Lyrics
Major upgrade!! After one year development the new version of Chordie is now online! Please give feedback.


Runaway  Gary Allan

[Am] [G] 
 
 -17--15-17----17--15-17----17-------|14h15------------------------------------
 -----------17-----------17----------|------14h15-------------------14h15------
 ------------------------------------|------------15h16-------15h16------------
 ------------------------------------|------------------16h17------------------
 ------------------------------------|-----------------------------------------
 ------------------------------------|-----------------------------------------

[F] [E]  
 
 -14h15|-13--12-13----13--12-13----|-13--12-13-12--12h13p12-10h12p10-8h10p8------
 ------|-----------13-----------13-|---------------------------------------------
 ------|---------------------------|---------------------------------------------
 ------|---------------------------|---------------------------------------------
 ------|---------------------------|---------------------------------------------
 ------|---------------------------|---------------------------------------------

[Am] [G] [F] 
 
 -7h8p7|-5-3-5---5-3-5--5-|-2h3--------------------2h3|------------------------
 ------|-------5------5---|-----2h3-------------2h3---|-5h6--------------------
 ------|------------------|---------3h4-----3h4-------|----4h5-----------------
 ------|------------------|-------------4h5-----------|--------6h7-----6h7-----
 ------|------------------|---------------------------|------------7h8---------
 ------|------------------|---------------------------|------------------------

[E]  
 
 ---------|---------------------------------------------------------------------
 -----5h6-|-5h6-16x-------------------------------------------------------------
 -4h5-----|---------------------------------------------------------------------
 ---------|---------------------------------------------------------------------
 ---------|---------------------------------------------------------------------
 ---------|---------------------------------------------------------------------


Important: The song above is NOT stored on the Chordie server. The original song is hosted at www.azchords.com. Chordie works as a search engine and provides on-the-fly formatting. Chordie does not index songs against artists'/composers' will. To remove this song please click here.

Text color:
Chord color:
Chord grids: 
Font size:    
Page size: 

Am E F G
Rate #1 of 6 versions

Jango Player

Login - add to songbook

SHARE PAGE  




You need to log in to post comments