Guitar Tabs, Chords and Lyrics
Login is temporarily disabled for some users. Do not panic. Will be back in an hour or two. DO NOT REREGISTER!!


Since I Met You Baby  Gary Moore

(Live)
SINCE I MET YOU BABY (Live)
As recorded by Gary Moore
(From the 1992 Album BLUES ALIVE)
Words and Music by Gary Moore
Gtr I (E A D G B E) - 'Gary Moore - overdrive elctric'
Intro
Q=150(8=s8)
[4/4] Gtr I
~~
a a Q Q E E E E Q Q
 
 |----------15b18--|-13b14-13---------------|
 |-----------------|----------16---13-------|
 |-----------------|-------------------14\--|
 |-----------------|------------------------|
 |-----------------|------------------------|
 |-17s12s0---------|------------------------|

H E E E E Q E E E E S S S S
 
 |-----------------|--------13-15----------------------|
 |-----------13----|-15b17--------15b17---13h15p13-----|
 |--------14----14-|-------------------------------14--|
 |-----------------|-----------------------------------|
 |-----------------|-----------------------------------|
 |-----------------|-----------------------------------|

~~
 
 |-3-| |-3--| |-3--| |-3--| |---3---|

Q E E E E E E E E E E E E E E E E E E E
 
 |-------------------8-|------10-8----8------------8-------8-|
 |-13--------------8---|-11p8------11---11p8-11b13---11b13---|
 |-----14\-----8h9-----|-------------------------------------|
 |---------------------|-------------------------------------|
 |---------------------|-------------------------------------|
 |---------------------|-------------------------------------|

~~
 
 |---3---| |-3--| |---3---|

E E E E E E S S E E E E a E E E E a E E E E
 
 |-------8--------8-----------------------|---------------------------|
 |-11b13---11b13====13p8------------10----|---8----10-----------------|
 |-----------------------11p10p8----10----|-8h9----10----8h9----------|
 |-------------------------------10----10-|-----10----10-----10-------|
 |----------------------------------------|---------------------10-10-|
 |----------------------------------------|---------------------------|

Verse 1
~~~~
+H +Q Q Q Q H Q Q H
 
 |-------------------||-3----------|-8----------|
 |-------------------||-3----------|-8----------|
 |-------------------||-3----------|-8----------|
 |-------------------||-2----------|-7----------|
 |-(10)----(10)\-----||-3----------|-8----------|
 |-------------------||------------|------------|

Q Q H W Q Q H
 
 |-3----------|----------|-3----------|
 |-3----------|----------|-3----------|
 |-3----------|----------|-3----------|
 |-2----------|----------|-2----------|
 |-3----------|----------|-3----------|
 |------------|----------|------------|
 |-3-| |-3-| |-3-| |-3-|

Q Q H Q Q H E E E E E E E E E E E E
 
 |-8----------|-3----------|-3-3-3-3-3-3-3-3-3-3-3-3-||
 |-8----------|-3----------|-3-3-3-3-3-3-3-3-3-3-3-3-||
 |-8----------|-3----------|-3-3-3-3-3-3-3-3-3-3-3-3-||
 |-7----------|-2----------|-2-2-2-2-2-2-2-2-2-2-2-2-||
 |-8----------|-3----------|-3-3-3-3-3-3-3-3-3-3-3-3-||
 |------------|------------|-------------------------||

Chorus
~~~~~~
|-3-|
Q Q E E E E E E E E E +Q Q H Q E E
 
 |-x/---------------|-----------------|---------------|
 |-x/---------------|-----------------|---------------|
 |-x/-----------5-7-|-8---7-5-(5)-----|---------------|
 |-x/-------6s7-----|---7-------------|-----------10--|
 |-x/---------------|-----------------|---------------|
 |------------------|-----------------|---------------|

a E E E a E +Q Q W W
 
 |------------------------|----------|------|
 |---8----10---8-(8)\-----|----------|------|
 |-8h9----10-8h9-(9)\-----|----------|------|
 |-----10-----------------|----------|------|
 |------------------------|----------|------|
 |------------------------|----------|------|

Verse 2
~~~~~~~
E E +E E E E E E E E E E +Q +Q Q Q H
 
 |--------------8-----------|-----------------------------||-3----------|
 |---11b13-(13)---11-8----8-|-8b8.5-----------------------||-3----------|
 |---------------------10---|-8b9-------------------------||-3----------|
 |--------------------------|-------10--------------------||-2----------|
 |--------------------------|----------10-10-(10)--(10)\--||-3----------|
 |--------------------------|-----------------------------||------------|

Q Q H Q Q H W
 
 |-8----------|-3----------|------|
 |-8----------|-3----------|------|
 |-8----------|-3----------|------|
 |-7----------|-2----------|------|
 |-8----------|-3----------|------|
 |------------|------------|------|

Q Q H Q Q H Q Q H
 
 |-3----------|-8\----------|-3----------|
 |-3----------|-8\----------|-3----------|
 |-3----------|-8\----------|-3----------|
 |-2----------|-7\----------|-2----------|
 |-3----------|-8\----------|-3----------|
 |------------|-------------|------------|

Chorus
~~~~~~
 
 |-3-| |-3-| |-3-| |-3-| |-3-| |-3-|

E E E E E E E E E E E E Q E E E E E E E E E E E E +Q Q
 
 |-3-3-3-3-3-3-3-3-3-3-3-3/-||--------------------|-----------------|
 |-3-3-3-3-3-3-3-3-3-3-3-3/-||--------------------|-----------------|
 |-3-3-3-3-3-3-3-3-3-3-3-3/-||----------------5-7-|-8---7-5-(5)-----|
 |-2-2-2-2-2-2-2-2-2-2-2-2/-||------------6s7-----|---7-------------|
 |-3-3-3-3-3-3-3-3-3-3-3-3/-||------0-------------|-----------------|
 |--------------------------||------0-0-0---------|-----------------|

W Q a E E a E E Q W
 
 |----------|--------------------|------|
 |----------|------8-10---8------|------|
 |----------|----8h9-10-8h9------|------|
 |----------|------8-------------|------|
 |----------|--------------------|------|
 |----------|--------------------|------|
 |-3-| |--3--|

W H Q E E E +Q H E E E
 
 |----------|---------------|------15b18----15p13----||
 |----------|-------------0-|-(0)-----------------16-||
 |----------|-------------0-|-(0)--------------------||
 |----------|---------0-0-0-|-(0)--------------------||
 |----------|---------0-0-0-|-(0)--------------------||
 |----------|---------0-0-0-|-(0)--------------------||

Guitar Solo
~~ ~~
 
 |-3-| |--3---| |---3----|

Q E E Q Q E E E E E E E E E E E
 
 |--------------------|-----------8-------8---11b11.5-8---|
 |-13--13----13--15\--|-(0)-----8---11b12---8-----------8-|
 |--------14----------|-(0)-8h9---------------------------|
 |--------------------|-----------------------------------|
 |--------------------|-----------------------------------|
 |--------------------|-----------------------------------|
 |--3--| |-3-|

[E] [E] [E] [E] [E] [E] [E] [E] [E] [E] [E] [E] [E] [+E] [E] [E] [E] [E]  
 
 |-11b11.5-8-10----8-------------|-------------------------|
 |--------------11---8-(11)----8-|-------------------------|
 |---------------------(11)-10---|-8-7----------------5----|
 |-------------------------------|-----10-10-(10)s5s7---7--|
 |-------------------------------|-------------------------|
 |-------------------------------|-------------------------|

~
Q E E E E E E S S S S Q E E E E
 
 |------------------------|--------------------|
 |--------6-8-------------|--------------------|
 |-7b8.5------7b8.5-5-7---|-5h7p5---5--5h7-5---|
 |----------------------7-|-------7----------8-|
 |------------------------|--------------------|
 |------------------------|--------------------|
 |--3--| |-3-| |--3---| |-3-| |--3---| |-3--| |-3--|

[E] [E] [+E] [E] [E] [E] [E] [E] [E] [E] [E] [E] [E] [E] [E] [E] [E] [E] [E] [E] [E] [E] [E]  
 
 |------------------8-------8---|-10p8---------8---11---11s13-13---|
 |-7-8-(8)\-------8---11b12---8-|------8-11b12---8----8------------|
 |-8-9-(9)\-0-8h9---------------|----------------------------------|
 |------------------------------|----------------------------------|
 |------------------------------|----------------------------------|
 |------------------------------|----------------------------------|

~~~~~~~~
 
 |---3---|

Q. E Q +E E E E E E E +E +E E +E
 
 |-13b15---11-----------------|------------------------------------------------|
 |------------13--(13)-(0)-13-|-16b18==18-18-18b20r(16)b16.5-(16.5)-16b17-(17)-|
 |----------------------------|------------------------------------------------|
 |----------------------------|------------------------------------------------|
 |----------------------------|------------------------------------------------|
 |----------------------------|------------------------------------------------|
 |-3--| |---3----| |--3--|

[E] [E] [E] [E] [E] [E] [E] [E] [E] [E] [E]  
 
 |------8----------------------------|
 |-13s8---8-------8------------------|
 |----------10b12---10b12-10p8----10-|
 |-----------------------------10----|
 |-----------------------------------|
 |-----------------------------------|

Chorus
~~~~~~~
E E E E +Q Q W a E E E a E H
 
 |---------------------||----------|-------------------|
 |---------------------||----------|---8-x-10---8------|
 |-8-------------------||----------|-8h9-x-10-8h9------|
 |---10----------------||----------|---8-x-10---8------|
 |------10-10-(10)-----||----------|-------------------|
 |---------------------||----------|-------------------|

~~~~~~
|-3-|
H E E E E E E E E E +Q Q W
 
 |----------------|-----------------|------|
 |----------------|-----------------|------|
 |------------5---|-8---7p5-(5)-----|------|
 |--------6s7---7-|---7-------------|------|
 |----------------|-----------------|------|
 |----------------|-----------------|------|

~~~~~~ ~~~~~~
|-3-|
E E E E +Q Q H E E E E E E a E E E +Q Q
 
 |-------------------|----------------|----------------------|
 |-------------------|------------8-8-|-11------10p8-(8)-----|
 |-8-----7-5-(5)-----|--------8h9-----|----9s10--------------|
 |-------------------|----------------|----------------------|
 |---(0)-------------|----------------|----------------------|
 |-------------------|----------------|----------------------|

Wx3 Q E E E E E E
 
 |------------|--------------11b12---||
 |------------|-----------13---------||
 |------------|----------------------||
 |------------|----------------------||
 |------------|----x/----------------||
 |------------|----x/----------------||

Guitar Solo
E E E E E E E E E E E E Q Q
 
 |-13b15---13b14.5====14.5---14.5---|-14.5---13r---13b15===15--|
 |----------------------------------|--------------------------|
 |----------------------------------|--------------------------|
 |----------------------------------|--------------------------|
 |----------------------------------|--------------------------|
 |----------------------------------|--------------------------|

~~~~~~~~~ PM|
|-3-| |-3--|
Q Q E E E E +E e Q E E E E E E
 
 |-15--15--15r-11-------|------11-------------8-10-|
 |----------------13-13-|-(13)---------8-9-10------|
 |----------------------|--------------------------|
 |----------------------|--------------------------|
 |----------------------|--------------------------|
 |----------------------|--------------------------|
 |---3---| |--3--| |-3--| |---3---|

S S E E E S S E E E E S S E E
 
 |-11p10p8----8----------8-10-11p10p8----|
 |---------10---8h9-9-10--------------10-|
 |---------------------------------------|
 |---------------------------------------|
 |---------------------------------------|
 |---------------------------------------|
 |-3-| |-3--| |---3---| |-3--|

E E E E E E S S E E E E E
 
 |-8--------8-10-11p10p8----8------|
 |---8-9-10--------------10---8-10-|
 |---------------------------------|
 |---------------------------------|
 |---------------------------------|
 |---------------------------------|

~~~~~~~
 
 |-3-| |--3--| |-3--| |-3-| |---3----|

[E] [E] [E] [E] [E] [E] [E] [E] [E] [E] [E] [E] [a] [E] [E] [+E] [+E] [E] [E] [E] [E] [E]  
 
 |-------------------------------|---------------------------------|
 |----8--------------------------|-------------------------------6-|
 |-10---8----10----7-------------|-----------------------5-8b8.5---|
 |--------10----10---8-----------|-----10-(10)-(10)/---------------|
 |---------------------10-10-9-8-|-6s7-----------------------------|
 |-------------------------------|---------------------------------|

[E] [E] [E] [E] [E] [E] [E] [E]  
 
 |------------------------------------|
 |-------6--------6--------6--------6-|
 |-[8]b9---[8]pb9---[8]pb9---[8]pb9---|
 |------------------------------------|
 |------------------------------------|
 |------------------------------------|

~~~~~~~~~~~~~~~~~
E E E E +E +E E E +Q Q Q Q
 
 |-------------------------------------|---------------|
 |--------6----------------------------|---------------|
 |-[8]pb9---[8]pb9-8pb10r(8)b9-(9)-5-5-|-(5)--5--5--5--|
 |-------------------------------------|---------------|
 |-------------------------------------|---------------|
 |-------------------------------------|---------------|

~
|--3--|
Q +E a E +Q Q H. E E E
 
 |------------------15--|-15b18------15p13----|
 |----------------------|------------------16-|
 |-5--(5)s12p0-(0)------|---------------------|
 |----------------------|---------------------|
 |----------------------|---------------------|
 |----------------------|---------------------|

~~
|--3--|
Q E E +Q E E +H. E E E
 
 |-----------------------15b18-|-(18)------15p13-----|
 |-13-----15b17-(15)\----15b18-|-(18)------------16--|
 |-----14--------------0-------|---------------------|
 |---------------------0-------|---------------------|
 |---------------------0-------|---------------------|
 |-----------------------------|---------------------|

~~
Q E E E E Q H Q Q
 
 |------------------------------|-15b18----15--15b18--|
 |-13-----13-16b16.5-(16.5)\-0--|-15b18---------------|
 |-----14--------------------0--|---------------------|
 |---------------------------0--|---------------------|
 |------------------------------|---------------------|
 |------------------------------|---------------------|

+Q q H q H e E
 
 |-(18)--15--15b18----|-15--15b18----15-----|
 |--------------------|---------------------|
 |--------------------|-----------------(0)-|
 |--------------------|---------------------|
 |--------------------|---------------------|
 |--------------------|---------------------|

H Q Q +Q E E E E E E
 
 |-15b18----15--15b18--|-(18)--13b13.5-13-------------|
 |--------------15b18--|-(18)-------------16-15-13----|
 |---------------------|---------------------------14-|
 |---------------------|------------------------------|
 |---------------------|------------------------------|
 |---------------------|------------------------------|
 |---3---| |-3-| |---3----|

E E E E Q E E +E E E E E E E E E S +S S S
 
 |-------13-14-15----------------|-----------------8-11b11.5-8--------------------|
 |-15b17----------15b16.5--13-13-|-(13)\---------8-------------8------------------|
 |-------------------------------|-----------5s9-----------------10b12r(10)p8-----|
 |-------------------------------|-------(0)----------------------------------10--|
 |-------------------------------|------------------------------------------------|
 |-------------------------------|------------------------------------------------|

Out-Chorus
~~~~~~~
E E E E +H W a E E E a E H
 
 |------------------------||----------|-------------------|
 |------------------------||----------|---8---10---8------|
 |-8b8.5------------------||----------|-8h9---10-8h9------|
 |-------10---------------||----------|---8---10---8------|
 |----------10-10-(10)----||----------|-------------------|
 |------------------------||----------|-------------------|

H Q E E E E E a E H H Q E E
 
 |--------------|------------------|--------------|
 |--------------|-10---10---8------|-----------x--|
 |--------------|-10---10-8h9------|-----------x--|
 |--------------|-10---10---8------|--------------|
 |-----------12-|------------------|--------------|
 |--------------|------------------|--------------|

E E E E H W a E E E a E H
 
 |-----10-8------|----------|-------------------|
 |-8---10-8------|----------|---8---10---8------|
 |-8---10-8------|----------|-8h9---10-8h9------|
 |---------------|----------|---8---10---8------|
 |---------------|----------|-------------------|
 |---------------|----------|-------------------|

H. Q Q Q H E a E E E E E E E
 
 |-------------|-11----------|------------11b11.5-8-10-----|
 |-10----------|-11----------|-------8-10--------------10--|
 |-10----------|-10----------|---8h9-----------------------|
 |-10----------|--9----------|-----------------------------|
 |-------------|-------------|-----------------------------|
 |-------------|-------------|-----------------------------|

TP TP TP TP
E E E E +H +W +H.. +S S
 
 |-8-----4-3-(3)----||-(3)--------:-(3)--------(3)----:
 |-------4-3-(3)----||-(3)--------:-(3)--------(3)-0--:
 |---(0)-4-3-(3)----||-(3)--------:-(3)--------(3)-0--:
 |---(0)-3-2-(2)----||-(2)--------:-(2)--------(2)----:
 |-------4-3-(3)----||-(3)--------:-(3)--------(3)----:
 |------------------||------------:-------------------:

~~~
|-3-|
Q T T T T T T T X X T T T T a T T T T S S S E
 
 |--------8-----------------------------------------------------:
 |-11b13----11-8----------------------8-------------------------:
 |---------------11p10p8----10----8h9---10-8h9------------------:
 |-----------------------10----10--------------10-8----------10-:
 |--------------------------------------------------10-9-8-7----:
 |--------------------------------------------------------------:

~~~~~~
+H Q E +S +S
 
 |------------18b20==(20)b21==(21)r\--*|
 |------------18b20==(20)b21==(21)r\--*|
 |------------------------------------*|
 |-(10)----0--------------------------*|
 |---------0--------------------------*|
 |------------------------------------*|


Important: The song above is NOT stored on the Chordie server. The original song is hosted at www.azchords.com. Chordie works as a search engine and provides on-the-fly formatting. Chordie does not index songs against artists'/composers' will. To remove this song please click here.

Text color:
Chord color:
Chord grids: 
Font size:    
Page size: 

E
Rate #1 of 1 versions

Login - add to songbook

SHARE PAGE  



You need to log in to post comments