Guitar Tabs, Chords and Lyrics
Login is temporarily disabled for some users. Do not panic. Will be back in an hour or two. DO NOT REREGISTER!!


Strangers in the Darkness   Gary Moore

 
 e|---------------------------------------------------------------------------|
 B|----10------------------10-------------------------------------------------|
 G|-------9--11---------------9--9brb-----------------------------------------|
 D|-/9-----------7\4---4/9----------------------------------------------------|
 A|---------------------------------------------------------------------------|
 E|---------------------------------------------------------------------------|

 


 


 (NO GUITAR IN THE FIRST VERSE)


 


 [Pre-Cborus 1] 


 


 

 
 e|---------------------------------------------------------------------------|
 B|-8W--------------8W--------------------------------------------------------|
 G|-7W--------------7W--------------------------------------------------------|
 D|-5W--------------5W--------------------------------------------------------|
 A|---------------------------------------------------------------------------|
 E|---------------------------------------------------------------------------|

 


 "See him after midnight on..."


 


 [Cborus 1] 


 


 

 
 e|---------------------------------------------------------------------------|
 B|------------------------------7W-------------------------------------------|
 G|------------------------6-----7W-------------------------------------------|
 D|-7-----5-----7-----5-------------------------------------------------------|
 A|-7-----5-----7-----5-------------------------------------------------------|
 E|-5-----3-----5-----3-------------------------------------------------------|

 


 


 


 [Verse 2] 


 


 

 
 e|---------------------------------------------------------------------------|
 B|-15brp12--14b--------------------------------------------------------------|
 G|---------------------------------------------------------------------------|
 D|---------------------------------------------------------------------------|
 A|---------------------------------------------------------------------------|
 E|---------------------------------------------------------------------------|

 


 "She left her home for better times..."


 


 [Pre-Cborus 2] 


 

 
 e|---------------------------------------------------------------------------|
 B|-8W--------------8W--------------------------------------------------------|
 G|-7W--------------7W--------------------------------------------------------|
 D|-5W--------------5W--------------------------------------------------------|
 A|---------------------------------------------------------------------------|
 E|---------------------------------------------------------------------------|

 


 "She sells her fading beauty to..."


 


 [Cborus 2] 


 


 

 
 e|---------------------------------------------------15b-15------------------|
 B|-------------12-14-14br-12----------12---------------------15-15-14--------|
 G|---------------------------14p12-14----14---------------------------14-----|
 D|-7-----5--------------------------------------5----------------------------|
 A|-7-----5--------------------------------------5----------------------------|
 E|-5-----3--------------------------------------3----------------------------|
 e|---10-----10-------------------------------------------------------------------|
 B|------12b----12-10----10-12-10-10h12p10----------------------------------------|
 G|-------------------12-------------------12-9---------6-------------------------|
 D|-5---------------------------------------------5----------7----7/9-------------|
 A|-5---------------------------------------------5-------------------------------|
 E|-3---------------------------------------------3-------------------------------|

 


 


 [Bridge] 


 


 

 
 e|---------------------------------------------------------------------------|
 B|---------------------------------------------------------------------------|
 G|-14\11-11h12p11\9-9h11p9\2-4W-7W-------------------------------------------|
 D|---------------------------------7-7/9-------------------------------------|
 A|---------------------------------------------------------------------------|
 E|---------------------------------------------------------------------------|

 


 (hold to feedback)


 


 [Solo 1] 


 


 

 
 e|-------------------------------------------------19---19-22-22b-22----22W--|
 B|------------10----------------------19b-19-19-20b--19----------------------|
 G|----2-----11--11-11---9-11-11---16W----------------------------------------|
 D|------4-------------12-----------------------------------------------------|
 A|-2W------------------------------------------------------------------------|
 E|---------------------------------------------------------------------------|

 


 


 [Pre-Cborus 3] 


 


 (Coming out of the guitar solo)


 


 

 
 e|-19W-----------------------------------------------------------------------|
 B|-----19-20b-20-------------------------------------------------------------|
 G|---------------------------------------------------------------------------|
 D|---------------------------------------------------------------------------|
 A|---------------------------------------------------------------------------|
 E|---------------------------------------------------------------------------|

 


 


 [Cborus 3] 


 


 

 
 e|------------10----10-----------------------------------10----10----------------------------|
 B|---------------12b---12-10----10-12-10--------------------12b--12-10----10-12-10-----10----|
 G|---------------------------12----------12----------------------------12----------12-9------|
 D|-5--5--5--5-------------------------------12-11---5----------------------------------------|
 A|-5--5--5--5---------------------------------------5----------------------------------------|
 E|-7--3--7--3---------------------------------------3----------------------------------------|
 e|---------------------------------------------------------------------------|
 B|-10b---10b-10b-10b---------------------------------------------------------|
 G|---------------------------------------------------------------------------|
 D|---------------------------------------------------------------------------|
 A|---------------------------------------------------------------------------|
 E|---------------------------------------------------------------------------|

 


 


 [Outro Solo] 


 


 

 
 e|---------------------------------------------------------------------------------|
 B|-14b-14----14b-14-------------------------------17-17-17p15---15-17----20b--20b--|
 G|--------14--------14---------14-14b-14b-14-14---------------18-----14------------|
 D|--------------------14-12-11-----------------------------------------------------|
 A|---------------------------------------------------------------------------------|
 E|---------------------------------------------------------------------------------|

 


 


 (Not sure what the fast run is)


 


 

 
 e|---------------------------15---15---------------------------------------------------------------------|
 B|---------------12brp10--17b--17b---17-15-14-15-14-12-14-12-10-12-10---10-------------------------------|
 G|----------9-11------------------------------------------------------12--12-11-12-11-9-11-9----9--------|
 D|-7---9-12----------------------------------------------------------------------------------12---11-11--|
 A|-------------------------------------------------------------------------------------------------------|
 E|-------------------------------------------------------------------------------------------------------|
 e|---------------------17--20b--20b-20b---|
 B|-10h12p10--15h17p15---------------------|
 G|----------------------------------------|
 D|----------------------------------------|
 A|----------------------------------------|
 E|----------------------------------------|


Important: The song above is NOT stored on the Chordie server. The original song is hosted at www.azchords.com. Chordie works as a search engine and provides on-the-fly formatting. Chordie does not index songs against artists'/composers' will. To remove this song please click here.

This song is displayed as text-only. Transposing and tuning is only available for chordpro-songs.
Rate #1 of 1 versions

Login - add to songbook

SHARE PAGE  




You need to log in to post comments