Guitar Tabs, Chords and Lyrics
Server problems seems to be fixed. Chordie has been experiencing problems with songs disappearing. These issues now seems to be fixed, but still verifying the fix. If you find anything strange, please email admin@chordie.com.


God in This Moment  Gavin Mikhail

 
 -----------------------------------------------------------------------------

Wieder mal schwere Handarbeit ;D
Viel SpaĆ?! / Have Fun!
______________________________________________________________
Gavin Mikhail - God in this moment
______________________________________________________________
CAPO = 0
* =
*
 
 e--------------5-----------------------|
 B--------------5-----------------------|
 G--------------6-----------------------|
 D--------------7-----------------------|
 A--------------7-----------------------|
 E--------------5-----------------------|
 ---------------------------------------------

Intro: C#m [*] D E A
 
 ---------------------------------------------
 ---------------------------------------------

Verse: D A D A D E F#m Bm E x2
 
 ---------------------------------------------

[D]Stained glass windows all a[A]round me
Watching [D]as they fall down to their [A]knees
Whispering [D]words I am [E]not unders[F#m]tanding
But, I k[Bm]now that I should [E]be
Kneeling, [D]praying, asking for [A]forgiveness
Thinking [D]of all the things I've done [A]wrong
Hoping [D]their god is [E]out there [F#m]somewhere
He's listening [Bm]now
And all [E]along...
 
 ---------------------------------------------

Chorus: D A D C#m [*] D A D E
 
 ---------------------------------------------

And I'm [D]told
There's a [A]god n this moment
D C#m [*]
Watching over me
I don't [D]know
Their g[A]od in this moment
But I [D]know I'll try to [E]believe...
 
 ---------------------------------------------

2'nd Verse: D A D A D E F#m Bm E x2
 
 ---------------------------------------------

[D]Ten years, ten lifetimes ol[A]der now
Watching, [D]waiting, expecting that [A]day
Knowing [D]that I can't [E]hope to i[F#m]magine
The [Bm]ways my life will c[E]hange
Now I'm [D]holding my daughter, she's [A]sleeping
I'm staring [D]down at a face just like [A]mine
Knowing [D]that from now [E]on
Nothing [F#m]matters as [Bm]much as this
In my [E]life...
 
 ---------------------------------------------

Chorus: D A D C#m [*] D A D E A
 
 ---------------------------------------------

And I'm [D]told
There's a [A]god n this moment
D C#m [*]
Watching over me
I don't [D]know
Their g[A]od in this moment
But I [D]know I'll [E]try to [A]believe...
 
 ---------------------------------------------

Bridge: F G A F G A F G A E
 
 ---------------------------------------------

Until the [F]day you took away from me
the [G]only thing that mattered in [A]my life
Can't you see why I am an[F]gry with you?
I'm hating you for [G]all you put me through
And, I [A]don't know why inside this silence is d[F]eafening
You know I gave up [G]everything for you
I followed you [A]always, all along
God don't let her be gone
I'm lost with[E]out you...
 
 ---------------------------------------------

3'nd Verse: D A D A D E F#m Bm E
 
 ---------------------------------------------

[D]But now you're gone and I'm [A]fading
And I, [D]I hurt in all these new [A]ways
Though I'm [D]praying you've [E]gone
to a [F#m]better place now
[Bm]I just can't [E]say...
 
 ---------------------------------------------

Chorus: D A D C#m [*] D A D E x2
 
 ---------------------------------------------

But I [D]hope
There's a [A]god n this moment
D C#m [*]
Watching over me
I don't [D]know
Their g[A]od in this moment
But I [D]know I'll try to [E]believe...
God I [D]hope
You're [A]there in this moment
D C#m [*] C#m
Watching over me now
Can you [D]show
you're [A]there in this moment
[D]Something to make me [E]believe
God I [D]hope
You're [A]there in this moment
D C#m [*] C#m
Watching over me now
Can you [D]show
you're [A]there in this moment
[D]Something to make me [E]believe

Important: The song above is NOT stored on the Chordie server. The original song is hosted at www.azchords.com. Chordie works as a search engine and provides on-the-fly formatting. Chordie does not index songs against artists'/composers' will. To remove this song please click here.

Text color:
Chord color:
Chord grids: 
Font size:    
Page size: 

A Bm D E F F#m G
Rate #1 of 1 versions

Login - add to songbook

SHARE PAGE  



You need to log in to post comments