Guitar Tabs, Chords and Lyrics
Server problems seems to be fixed. Chordie has been experiencing problems with songs disappearing. These issues now seems to be fixed, but still verifying the fix. If you find anything strange, please email admin@chordie.com.


Another Record  Genesis

INTRO
[1] [+] [2] [+] [3] [+] [4] [+] [1] [+] [2] [+] [3] [+] [4] [+] [1] [+] [2] [+] [3] [+] [4] [+] [1] [+] [2] [+] [3] [+] [4] [+]  
 
 e|----2-----------|----------------|----------------|----------------|
 B|------------6---|----------------|----------------|----------------|
 G|--4---4---3---3-|-------%--------|-------%--------|--------%-------|
 D|----------------|----------------|----------------|----------------|
 A|4-------4-------|----------------|----------------|----------------|
 E|----------------|----------------|----------------|----------------|

[1] [+] [2] [+] [3] [+] [4] [+] [1] [+] [2] [+] [3] [+] [4] [+] [1] [+] [2] [+] [3] [+] [4] [+] [1] [+] [2] [+] [3] [+] [4] [+]  
 
 e|----2-------1---|----------------|----------------|----------------|
 B|----------------|----------------|----------------|----------------|
 G|--4---4---3---3-|-------%--------|-------%--------|-------%--------|
 D|1-------1-------|----------------|----------------|----------------|
 A|----------------|----------------|----------------|----------------|
 E|----------------|----------------|----------------|----------------|

[1] [+] [2] [+] [3] [+] [4] [+] [1] [+] [2] [+] [3] [+] [4] [+] [1] [+] [2] [+] [3] [+] [4] [+] [1] [+] [2] [+] [3] [+] [4] [+]  
 
 e|----2-----------|----------------|----------------|----2-------1---|
 B|------------6---|----------------|----------------|----------------|
 G|--4---4---3---3-|-------%--------|-------%--------|--4---4---3---3-|
 D|----------------|----------------|----------------|----------------|
 A|4-------4-------|----------------|----------------|4-------1-------|
 E|----------------|----------------|----------------|----------------|

[A/C#] [G] [A] [G] [A] 
[1] [+] [2] [+] [3] [+] [4] [+] [1] [+] [2] [+] [3] [+] [4] [+] [1] [+] [2] [+] [3] [+] [4] [+] [1] [+] [2] [+] [3] [+] [4] [+]  
 
 e|----------------|----------------|----------------|----------------|
 B|2---------------|----------0---2-|----------------|----------0---2-|
 G|2---------------|----------0---2-|----------------|----------0---2-|
 D|2---------------|----------0---2-|----------------|----------0---2-|
 A|4---------------|--------------0-|----------------|--------------0-|
 E|----------------|----------3-----|----------------|----------3-----|

[A] [G] [A] [G] [Em] [G] [A] 
[1] [+] [2] [+] [3] [+] [4] [+] [1] [+] [2] [+] [3] [+] [4] [+] [1] [+] [2] [+] [3] [+] [4] [+] [1] [+] [2] [+] [3] [+] [4] [+]  
 
 e|----------------|----------------|----------------|----------------|
 B|----------------|----------------|----------------|----------------|
 G|----------------|----------------|----------------|------2---------|
 D|----------------|----------------|2-2-0-2---0-----|--0---2---------|
 A|----------------|----------------|0-0---0-------2-|------0---------|
 E|----------------|----------------|----3-----3---0-|--3-------------|

VERSE (main riff)
[A] [G] [A] [G] [A] [G] [A] [G]  
[1] [+] [2] [+] [3] [+] [4] [+] [1] [+] [2] [+] [3] [+] [4] [+]  
 
 e|----------------|----------------|
 B|----------------|----------------|
 G|2-2-0-2---0-----|2-2-0-2---0-----|
 D|2-2-0-2---0-----|2-2-0-2---0-----|
 A|0-0---0---------|0-0---0---------|
 E|----3-----3-----|----3-----3-----|
 ---------------------------------------------------------------------------

CHORDS
E-A-D-G-B-e
A/C# x-4-2-2-2-0
 
 ---------------------------------------------------------------------------

(INTRO)
see above
VERSE
[A] [G] It's [A]fun[G]ny you [A]know,[G] [A]
[G]'Cos there's an [A]old rock[G]'n'[A]rol[G]ler
He's got [A]nowhere [G]to [A]go.[G]
[A] [G]Did [A]you e[G]ver think of [A]taking [G]him [A]in?[G]
S[A]ome[G]body [A]help [G]him, [A]somebo[G]dy [A]please.[G]
CHORUS
[Bm] Put another[F#m] [G]record on
[Bm] 'Cos he [D]likes [Dsus4]that [D]song.
INTERLUDE
| A G A G | A G A G |
| A G A G Em | G A |
VERSE
[A] [G] It's [A]fun[G]ny you [A]know,[G] [A]
[G] Ooh he [A]never [G]done [A]not[G]hing, done [A]nobo[G]dy [A]wrong,[G]
[A] [G]Did he [A]think a[G]bout [A]changing [G]his [A]name,[G]
But [A]I'm gon[G]na [A]tell [G]him it's the [A]same ol[G]d [A]game.
CHORUS
[Bm] Put another[F#m] [Em]record on
[C] [C]Round and round and round and a[F]round - [C]oh
| D |
Ah - see him smile.
INTERLUDE
| A G A G | A G A G |
| A G A G Em | G A |
VERSE
[A] [G] Well [A]lat[G]ely I'v[A]e seen[G] h[A]im
[A]Walking [G]down [A]the street[G], kinda [A]moving [G]his [A]feet,[G]
[A] [G] Eve[A]ryone [G]I know looks the [A]ot[G]her[A] way[G]
[A]Somebo[G]dy [A]help [G]him, [A]somebo[G]dy [A]please.[G]
CHORUS
[Bm] Put another[F#m] [Em]record on
[C] [C]Round and round and round and a[F]round - [C]oh
| D |
Ah - see him smile.
INTERLUDE
| A G A G |
| A G A G Em | G A |
VERSE
[A] [G] It's [A]fun[G]ny you [A]know,[G] [A]
[G]'Cos there's an [A]old rock[G]'n'[A]rol[G]ler
He's got [A]nowhere [G]to [A]go.[G]
[A] [G]Did [A]you e[G]ver think of [A]taking [G]him [A]in?[G]
[A] Some[G]body [A]help [G]him, [A]somebo[G]dy [A]please.[G]
OUTRO
A G A G A G A G | A G A G | A G A G |
Just put another record on
A G A G A G A G | A G A G | A G A G |
Just put another record on
A G A G A G A G | A G A G | A G A G |
Put another record on (Cause you know you like it)
A G A G A G A G | A G A G | A G A G |
Put another record on (Cause you know you like it)
(repeat and fade)

Important: The song above is NOT stored on the Chordie server. The original song is hosted at www.azchords.com. Chordie works as a search engine and provides on-the-fly formatting. Chordie does not index songs against artists'/composers' will. To remove this song please click here.

Text color:
Chord color:
Chord grids: 
Font size:    
Page size: 

A A/C# Bm C D Dsus4 Em F F#m G
Rate #1 of 1 versions

Jango Player

Login - add to songbook

SHARE PAGE  



You need to log in to post comments