Guitar Tabs, Chords and Lyrics
Major upgrade!! After one year development the new version of Chordie is now online! Please give feedback.


Congo  Genesis

No Capo
[Cbords] 
[A4] [C] [C6] [G] [Gadd9]  
 
 e|---0-----3---5--3-----5------|-------------------------|
 B|---3-----5---5--3-----3------|-------------------------|
 G|---2-----5---5--4-----4------|-------------------------|
 D|---2-----5---5--5-----5------|-------------------------|
 A|---0-----3---3--5-----5------|-------------------------|
 E|---0-----3---3--3-----3------|-------------------------|

[Intro] 
 
 e|-------------------------|-------------------------|
 B|-7-7-5-----7-7-5---------|-7-7-5-----7-7-5---------|
 G|-------7-7-------7-------|-------7-7-------7-------|
 D|-------------------------|-------------------------|
 A|-------------------------|-------------------------|
 E|-------------------------|-------------------------|
 e|-------------------------|-------------------------|
 B|-7-7-5-----5-5-----------|-7-7-5-----5-5-----------|
 G|-------7-7------4--------|-------7-7-------4-------|
 D|------------------7-7----|---------------7---------|
 A|-------------------------|-------------------------|
 E|-------------------------|-------------------------|
 e|-------------------------|-------------------------|
 B|-7-7-5-----5-5---------5-|-7-7-5-----7-7-5---------|
 G|-------7-7-----4---4-7---|-------7-7-------7-------|
 D|-----------------7-------|-------------------------|
 A|-------------------------|-------------------------|
 E|-------------------------|-------------------------|

[E] [D] [A] [E] [D] [A] [E] [D] [A]  
[Verse] 
[E]You say that I put chains on you[D] [A] [E]
[E]But I don't think that's really true[D] [A] [E]
[E]But if you want to be free from me[D] [A] [E]
[E]You gotta lose me in [D]another [A]world
[Cborus] 
[E]Send me to the [D]Congo I'm [A2]free to l[A]eave
[E]There's always [D]somewhere anyb[A2]ody can l[A]ead
[E]Send me to the [D]Congo you h[A2]ave to bel[A]ieve
[E]You can do it i[D]f you wann[A2]a just do[A] what you please
[Verse] 
[E]Like a soldier ant[D] [A] [E]
[E]I will wait for the signal to act[D] [A] [E]
[E]To take a walk right through the door[D] [A] [E]
[E]If you don't want me here [D]any m[A]ore
[Cborus] 
[E]Send me to the [D]Congo I'm [A2]free to l[A]eave
[E]There's always [D]somewhere anyb[A2]ody can l[A]ead
[E]Send me to the [D]Congo you h[A2]ave to bel[A]ieve
[E]You can do it i[D]f you wann[A2]a just do[A] what you please
[C] [C6] [C] [G] [Gadd9] [G]  
[Interlude] 
[G]Into my [C]heart you ca[C6]me[C]
And [C]gave a whole new [G]meaning to m[G6]y lif[G]e
Into my [C]world you brought a li[C6]ght
I [C]thought it n[G]ever would [G6]go ou[G]t
[Cborus] 
[E]Send me to the [D]Congo I'm [A2]free to l[A]eave
[E]There's always [D]somewhere anyb[A2]ody can l[A]ead
[E]Send me to the [D]Congo you h[A2]ave to bel[A]ieve
[E]You can do it i[D]f you wann[A2]a just do[A] what you please
[Cborus] 
You can [E]send me to the [D]Congo I'm [A2]free to l[A]eave
[E]There's always [D]somewhere anyb[A2]ody can l[A]ead
Yes you [E]can send me to [D]the Congo,[A2] you have[A] to believe
[E]You can do it i[D]f you wann[A2]a just do[A] what you please
[Instrumental ] 
[Bm] [A] [Bm] [A] [Bm] [G] [A] [Bm] [Em] [A] [Bm]  
[Outro] 
[Bm]I would never [G]be the one to [A]say you had no [Bm]reason
[Bm]To want me som[G]ewhere else [A]far far a[Bm]way
But [Bm]someday you may [G]understand, [A]someday you will s[F#m]ee
[Bm]That someone who would [G]die for you is [A]all I've ever [Bm]been
[Bm]Congo the [G]Congo, if that's [A]how it's got to[Bm] be
[Bm]Congo the [G]Congo, if that's [A]what you want fr[Bm]om me
[Bm]I would never [G]be the one to [A]say you had no [Bm]reason
[Bm]To want me som[G]ewhere else [A]far far a[Bm]way
But [Bm]someday you may [G]understand, [A]someday you will s[F#m]ee.........

Important: The song above is NOT stored on the Chordie server. The original song is hosted at www.azchords.com. Chordie works as a search engine and provides on-the-fly formatting. Chordie does not index songs against artists'/composers' will. To remove this song please click here.

Text color:
Chord color:
Chord grids: 
Font size:    
Page size: 

A A2 A4 Bm C C6 D E Em F#m G G6 Gadd9
Rate #1 of 1 versions

Jango Player

Login - add to songbook

SHARE PAGE  



You need to log in to post comments