Guitar Tabs, Chords and Lyrics
Server problems seems to be fixed. Chordie has been experiencing problems with songs disappearing. These issues now seems to be fixed, but still verifying the fix. If you find anything strange, please email admin@chordie.com.


Land of Confusion  Genesis

Intro
Q=120
N.C. A
[4/4] Gtr I (El. Gtr. / 1/2 step down)
W E E E E E E E E E E E E E E E E E E E E E E E E
 
 |----------|-----------------|-----------------|-----------------|
 |----------|-----------------|-----------------|-----------------|
 |----------|-----------------|-----------------|-----------------|
 |----------|---------7-------|---------7-------|---------7-------|
 |----------|-----7-------7---|-----7-------7---|-----7-------7---|
 |----------|---5---5---5---5-|---5---5---5---5-|---5---5---5---5-|

1st Verse
E E E E E E Q [D5E5]E E Q H H Q [G/D] E S S E [A/E] E Q H
 
 |----------------||-------------|------------------|---------------|
 |----------------||-------------|---------12-12-12-|-12-14---------|
 |----------------||-7-9---------|---------12-12-12-|-12-14---------|
 |---------7---7--||-7-9---------|---------12-12-12-|-12-14---------|
 |-----7-------7--||-7-7---------|------------------|---------------|
 |---5---5---5----||-------------|------------------|---------------|

H Q [C]E E E [D]E Q H H Q [D5/E]E E E [E5]E Q H
 
 |-------------|-------------|-------------|-------------|
 |---------5-5-|-5-7---------|-------------|-------------|
 |---------5-5-|-5-7---------|---------7-7-|-7-9---------|
 |-------------|-------------|---------7-7-|-7-9---------|
 |-------------|-------------|---------7-7-|-7-7---------|
 |-------------|-------------|-------------|-------------|

2nd - 4th Verses
$
H Q [D5/E]E E E [E5]E Q H H Q [G/D] E E E [A/E] E Q H
 
 |-------------||--------------|---------------|---------------|
 |-------------||o-------------|---------12-12-|-12-14---------|
 |---------7-7-||--7-9---------|---------12-12-|-12-14---------|
 |---------7-7-||--7-9---------|---------12-12-|-12-14---------|
 |---------7-7-||o-7-7---------|---------------|---------------|
 |-------------||--------------|---------------|---------------|

H Q [C]E E E [D]E Q H H Q [D5/E]E E E [E5]E Q H
 
 |-------------|-------------|-------------|-------------|
 |---------5-5-|-5-7---------|-------------|-------------|
 |---------5-5-|-5-7---------|---------7-7-|-7-9---------|
 |-------------|-------------|---------7-7-|-7-9---------|
 |-------------|-------------|---------7-7-|-7-7---------|
 |-------------|-------------|-------------|-------------|

Pre-Chorus
W H E [E5]Q. +Q Q E [A/E] S S Q H E [E5]Q.
 
 |----------||-------------|---------------------|-------------|
 |----------||-------------|-----------14-14-14--|-------------|
 |----------||--------9----|-(9)-------14-14-14--|--------9----|
 |----------||--------9----|-(9)-------14-14-14--|--------9----|
 |----------||--------7----|-(7)-----------------|--------7----|
 |----------||--------0----|-(0)-----------------|--------0----|

+H E [A/E] S S Q Q Q E [E5]Q.
 
 |--------------------|---------------|
 |----------14-14-14--|-14------------|
 |-(9)------14-14-14--|-14-------9----|
 |-(9)------14-14-14--|-14-------9----|
 |-(7)----------------|----------7----|
 |-(0)----------------|----------0----|

+H E [A/E] S S S S E +Q Q E [E5]S S Q
 
 |-------------------------|-------------------|
 |----------14-14-14-14-14-|-(14)--------------|
 |-(9)------14-14-14-14-14-|-(14)-------9-9-9--|
 |-(9)------14-14-14-14-14-|-(14)-------9-9-9--|
 |-(7)---------------------|------------7-7-7--|
 |-(0)---------------------|------------0-0-0--|

Chorus
H E [D/F#] S S S S S S Q [E5]E E E [C5]E E E
 
 |--------10-10-10-10-10-10-||----------------|
 |--------10-10-10-10-10-10-||----------------|
 |--------11-11-11-11-11-11-||----9-----5---5-|
 |--------------------------||----9-----5---5-|
 |--------------------------||----7-----3---3-|
 |--------------------------||----------------|

Q [D5]E E E [B5]E E E Q [E5]E E E [C5]E E E
 
 |----------------|-----------------|
 |----------------|-----------------|
 |----7-----4---4-|----9-----5---5--|
 |----7-----4---4-|----9-----5---5--|
 |----5-----2---2-|----7-----3---3--|
 |----------------|-----------------|

Q [D5]E E E [B5]E E E Q [E5]E E E [C5]E E E Q [D5]E E E [B5]E E E Q [E5]E E E [C5]E E E
 
 |----------------|----------------|----------------|----------------|
 |----------------|----------------|----------------|----------------|
 |----7-----4---4-|----9-----5---5-|----7-----4---4-|----9-----5---5-|
 |----7-----4---4-|----9-----5---5-|----7-----4---4-|----9-----5---5-|
 |----5-----2---2-|----7-----3---3-|----5-----2---2-|----7-----3---3-|
 |----------------|----------------|----------------|----------------|

Interlude
To Coda
Q [D5]E E E [B5]E E E E [A]E E E E E E E E E E E E E E E E E E E E E E E
 
 |-----------------||-----------------|-----------------|-----------------|
 |-----------------||-----------------|-----------------|-----------------|
 |----7-----4---4--||-----------------|-----------------|-----------------|
 |----7-----4---4--||---------7-------|---------7-------|---------7-------|
 |----5-----2---2--||-----7-------7---|-----7-------7---|-----7-------7---|
 |-----------------||---5---5---5---5-|---5---5---5---5-|---5---5---5---5-|

Bridge
N.C.
E E E E E E Q E E E E E E E E Q E E E E Q E E E E E E E E
 
 |-----------------||------------------|---------------|------------------|
 |----------------o||---/9-9-7-7-5-5---|---------------|---/9-9-7-7-5-5---|
 |-----------------||---/9-9-8-8-4-4---|--------6------|---/9-9-8-8-4-4---|
 |---------7---7---||------------------|----4---6------|------------------|
 |-----7-------7--o||------------------|----4----------|------------------|
 |---5---5---5-----||------------------|---------------|------------------|

Q E E E E Q E E E E E E E E E E E E E E E E E E E E E E E E
 
 |---------------|------------------|-----------------|-------------------|
 |---------------|---/9-9-7-7-5-5---|---7-7-5-5-------|---/9-9-7-7-5-5----|
 |--------6------|---/9-9-8-8-4-4---|---6-6-6-6-8-8---|---/9-9-8-8-4-4----|
 |----4---6------|------------------|-----------7-7---|-------------------|
 |----4----------|------------------|-----------------|-------------------|
 |---------------|------------------|-----------------|-------------------|

Q E E E E E E E E E E E E E E Q E E E E Q E E E E E E E E
 
 |------------------|------------------|---------------|-------------------|
 |----7p5-/7---/9---|---/9-9-7-7-5-5---|---------------|---/9-9-7-7-5-5----|
 |----6---/8---/9---|---/9-9-8-8-4-4---|--------6------|---/9-9-8-8-4-4----|
 |------------------|------------------|----4---6------|-------------------|
 |------------------|------------------|----4----------|-------------------|
 |------------------|------------------|---------------|-------------------|

Q E E E E Q E E E E E E E E E E E E E E E E E E E E E E E E
 
 |---------------|------------------|-----------------|-------------------|
 |---------------|---/9-9-7-7-5-5---|---7-7-5-5-------|---/9-9-7-7-5-5----|
 |--------6------|---/9-9-8-8-4-4---|---6-6-6-6-8-8---|---/9-9-8-8-4-4----|
 |----4---6------|------------------|-----------7-7---|-------------------|
 |----4----------|------------------|-----------------|-------------------|
 |---------------|------------------|-----------------|-------------------|

Q E E E E E E [A6A]E Q. +H +W
 
 |------------------|----------------|--------||
 |----7p5-/7---/9---|-7p=5----(5)----|-(5)----||
 |----6---/8---/9---|-6-(6)---(6)----|-(6)----||
 |------------------|-7-(7)---(7)----|-(7)----||
 |------------------|----------------|--------||
 |------------------|----------------|--------||

Interlude
[C5] W +W
 
 |-------------------------------|------------------------|
 |-------------------------------|------------------------|
 |-------------------------------|------------------------|
 |--5----------------------------|-(5)--------------------|
 |--3----------------------------|-(3)--------------------|
 |-------------------------------|------------------------|

|
| Gtr II (Synth. arr. for Gtr. / 1/2step down)
| E. S +E E E. S +E E E. S +E E Q Q
 
 |-------------15-14--12-(12)----|-------------15-14------|
 |-13--15-(15)----------------15-|-13--15-(15)--------15--|
 |-------------------------------|------------------------|
 |-------------------------------|------------------------|
 |-------------------------------|------------------------|
 |-------------------------------|------------------------|

W +W
 
 |-------------------------------|------------------------|
 |-------------------------------|------------------------|
 |-------------------------------|------------------------|
 |--5----------------------------|-(5)--------------------|
 |--3----------------------------|-(3)--------------------|
 |-------------------------------|------------------------|

|
| E. S +E E E. S +E E E. S +E E Q Q
 
 |-------------15-14--12-(12)----|-------------15-14------|
 |-13--15-(15)----------------15-|-13--15-(15)--------15--|
 |-------------------------------|------------------------|
 |-------------------------------|------------------------|
 |-------------------------------|------------------------|
 |-------------------------------|------------------------|

[D5]  
[B] [B]  
 
 |-------------------------------|
 |-------------------------------|
 |-------------------------------|
 |--5--------------7-------------|
 |--3--------------5-------------|
 |-------------------------------|

|
| E. S +E E E. S +E E
 
 |-------------15-14--12-(12)----|
 |-13--15-(15)----------------15-|
 |-------------12-11---9--(9)----|
 |-10--12-(12)----------------12-|
 |-------------------------------|
 |-------------------------------|

[C5] [D5] [C5] [D5] 
[B] [B] [B] [B]  
 
 |------------------------|-------------------------------|
 |------------------------|-------------------------------|
 |------------------------|-------------------------------|
 |--5--------------7------|--5--------------7-------------|
 |--3--------------5------|--3--------------5-------------|
 |------------------------|-------------------------------|

|
| E. S +E E Q Q E. S +E E E. S +E E
 
 |-------------15-14------|-------------15-14--12-(12)----|
 |-13--15-(15)--------15--|-13--15-(15)----------------15-|
 |-------------12-11------|-------------12-11---9--(9)----|
 |-10--12-(12)--------12--|-10--12-(12)----------------12-|
 |------------------------|-------------------------------|
 |------------------------|-------------------------------|

D.S. al Coda
[C5] H [D5] Q [D5/E] E E E [E5] E +H. +H Q E E
 
 |--------------------------|---------------------|-----------------||
 |--------------------------|---------------------|-----------------||
 |---------------------7--7-|--7--9--(9)----------|--(9)-------9-9--||
 |--5--------------7---7--7-|--7--9--(9)----------|--(9)-------9-9--||
 |--3--------------5---7--7-|--7--7--(7)----------|--(7)-------7-7--||
 |--------------------------|---------------------|-----------------||

|
| E. S +E E Q E E E Q. +H +H H
 
 |-------------15-14--------|---------------------|-----------------||
 |-13--15-(15)--------15-15-|-15-17-------(17)----|-(17)------------||
 |-------------12-11--------|---------------------|-----------------||
 |-10--12-(12)--------12-12-|-12-14-------(14)----|-(14)------------||
 |--------------------------|---------------------|-----------------||
 |--------------------------|---------------------|-----------------||

Chorus
&
Q [E5]E E E [C5]E E E Q [D5]E E E [B5]E E E Q [E5]E E E [C5]E E E Q [D5]E E E [B5]E E E
 
 ||-----------------|----------------|----------------|------------------||
 ||o----------------|----------------|----------------|-----------------o||
 ||-----9-----5---5-|----7-----4---4-|----9-----5---5-|----7-----4---4---||
 ||-----9-----5---5-|----7-----4---4-|----9-----5---5-|----7-----4---4---||
 ||o----7-----3---3-|----5-----2---2-|----7-----3---3-|----5-----2---2--o||
 ||-----------------|----------------|----------------|------------------||

Outro
[A]  
[E] [E] [E] [E] [E] [E] [E] [E] [E] [E] [E] [E] [E] [E] [E] [E] [E] [E] [E] [E] [E] [E] [E] [E]  
 
 |-----------------|-----------------|-----------------|
 |-----------------|-----------------|-----------------|
 |-----------------|-----------------|-----------------|
 |---------7-------|---------7-------|---------7-------|
 |-----7-------7---|-----7-------7---|-----7-------7---|
 |---5---5---5---5-|---5---5---5---5-|---5---5---5---5-|

E E E E E E [D5]S S S S E [E5]Q. +H +W
 
 |---------------------|---------------|--------*|
 |---------------------|---------------|--------*|
 |-------------7-7-7-7-|-7-------------|--------*|
 |---------7---7-7-7-7-|-7-2----(2)----|-(2)----*|
 |-----7-------5-5-5-5-|-5-2----(2)----|-(2)----*|
 |---5---5---5---------|---0----(0)----|-(0)----*|


Important: The song above is NOT stored on the Chordie server. The original song is hosted at www.azchords.com. Chordie works as a search engine and provides on-the-fly formatting. Chordie does not index songs against artists'/composers' will. To remove this song please click here.

Text color:
Chord color:
Chord grids: 
Font size:    
Page size: 

A A/E B B5 C C5 D D/F# D5 D5/E E E5 G/D
Rate #1 of 9 versions

Login - add to songbook

SHARE PAGE  




You need to log in to post comments