Guitar Tabs, Chords and Lyrics
Update 25:10. 13:00. Site is back up running again. Songbooks are recovered. Woring on getting search back up..


Mama  Genesis

INTRO (keyboard line)
[Em]  
[1] [+] [2] [+] [3] [+] [4] [+] [1] [+] [2] [+] [3] [+] [4] [+] [1] [+] [2] [+] [3] [+] [4] [+]  
 
 e|3-----2---------|----------------|----------------|
 B|----------------|--------2-----4-|----------------|
 G|----------------|----------------|----------------|
 D|----------------|----------------|----------------|
 A|----------------|----------------|----------------|
 E|----------------|----------------|----------------|

[Em]  
[1] [+] [2] [+] [3] [+] [4] [+] [1] [+] [2] [+] [3] [+] [4] [+] [1] [+] [2] [+] [3] [+] [4] [+]  
 
 e|3-----2---------|----------------|----3---0-------|
 B|----------------|--------2-----4-|----------------|
 G|----------------|----------------|----------------|
 D|----------------|----------------|----------------|
 A|----------------|----------------|----------------|
 E|----------------|----------------|----------------|

INTRO / VERSE
[Em] [D/E] 
[1] [+] [2] [+] [3] [+] [4] [+] [1] [+] [2] [+] [3] [+] [4] [+] [1] [+] [2] [+] [3] [+] [4] [+] [1] [+] [2] [+] [3] [+] [4] [+]  
 
 e|----------------|------------5---|----------------|----------------|
 B|8-----7-8-----7-|8---------------|7-----5-7-----5-|7---------------|
 G|----------------|----------------|----------------|----------------|
 D|----------------|----------------|----------------|----------------|
 A|----------------|----------------|----------------|----------------|
 E|----------------|----------------|----------------|----------------|

INTERLUDE 1 (lick)
[no cbord] 
[1] [+] [2] [+] [3] [+] [4] [+] [1] [+] [2] [+] [3] [+] [4] [+] [1] [+] [2] [+] [3] [+] [4] [+] [1] [+] [2] [+] [3] [+] [4] [+]  
 
 e|----------------|----------------|----------------|----------------|
 B|----------------|----------------|----------------|----------------|
 G|----------------|----------------|----------------|----------------|
 D|--5-5-5-5-----4-|----------------|--5-5-5-5-7-----|4---------------|
 A|----------5-7---|----------------|------------5-7-|----------------|
 E|----------------|----------------|----------------|----------------|

INTERLUDE 2
[1] [+] [2] [+] [3] [+] [4] [+] [1] [+] [2] [+] [3] [+] [4] [+]  
 
 e|----------------|----------------|
 B|----------------|----------------|
 G|----------------|----------------|
 D|----------------|----------------|
 A|----------------|----------------|
 E|----------------|----------------|

Haha,he Haha,he
[Em]  
[1] [+] [2] [+] [3] [+] [4] [+] [1] [+] [2] [+] [3] [+] [4] [+] [1] [+] [2] [+] [3] [+] [4] [+] [1] [+] [2] [+] [3] [+] [4] [+]  
 
 e|--------3-----2-|----------------|------------3---|0---------------|
 B|----------------|----------------|2-----4---------|----------------|
 G|----------------|----------------|----------------|----------------|
 D|----------------|----------------|----------------|----------------|
 A|----------------|----------------|----------------|----------------|
 E|----------------|----------------|----------------|----------------|

oh
 
 ---------------------------------------------------------------------------

CHORDS
E-A-D-G-B-e
D/E 0-2-2-2-3-2
C/E 0-x-2-0-1-0
G/E 0-x-5-4-3-0
C6 x-3-2-2-1-0
G/D x-x-0-4-3-3
A/E 0-x-2-2-2-0
Em7 0-2-0-0-0-x
Am/E 0-x-2-2-1-0
 
 ---------------------------------------------------------------------------

| N.C. | % | % | % |
| Em | % | % | % |
(bass slowly faded in)
| Em | % | % | | Em | % | % |
(keyboard line)
| Em | % | % | % |
| Em | % | D/E | % |
(verse keyboard line)
VERSE
[Em]I can't see you mama
But [D/E]I can hardly wait
Oh to [Em]touch and to feel you mama
Oh I [D/E]just can't keep away
In the [Em]heat and the steam of the city
Oh itā??s got m[D/E]e running and I just can't brake
So [C/E]say you'll help me mama
'Cause itā??[D/E]s getting so hard [E]ā?? oh, oh
VERSE
Now [Em]I can't keep you mama
But I [D/E]know you're always there
You [Em]listen, you teach me mama
And I [D/E]know inside you care
So [Em]get down, down here beside me
Oh [D/E]you ain't going nowhere
No [C/E]I won't hurt you mama
But itā??[D/E]s getting so hard [E]ā?? oh, oh
INTERLUDE
| [no cbord] | % |
Ha ha, he - Ha ha, he oh
| [no cbord] | % |
Ha ha, he - Ha ha, he oh
| [no cbord] | % |
(lick)
| [no cbord] | % |
(lick)
| [no cbord] | % |
(lick)
| [no cbord] | % |
(lick)
MIDDLE 8
| A | % | G/E D/E
Can't you see me here
[C]Mama. [C6]mama, [G/D]mama, [D]mama, [A/E]please
[G/E] Can't you feel my [D/E]heart
Can't you feel my [Em]heart
[Em7] Can't you feel my [Am/E]heart
Oh-oh-[D/E]oh, now listen to me
[C]Mama. [C6]mama, [G/D]mama
You're [D]taking away my last [Em]chance
[D/E] Don't [C/E]take it away
[D/E] Can't you feel my [Em]heart?
INTERLUDE 2
| Em |
Ha ha, he
| Em |
Ha ha, he
| Em | % | % | % |
oh (keyboard line)
VERSE
It's [Em]hot, too hot for me mama
But [D/E]I can hardly wait
My [Em]eyes they're burning mama
And [D/E]I can feel my body shake
Don't [Em]stop, don't stop me mama
Oh make the [D/E]pain, make it go away ā?? hey
No [C/E]I won't hurt you mama
But itā??[D/E]s getting so hard [E]ā?? oh, oh
VERSE
Now [Em]I can't keep you mama
But I [D/E]know you're always there
You [Em]taunt, you tease me mama
But I [D/E]never, never, never can keep away
Itā??s th[Em]e heat and the steam of the city
Oh-oh-oh-oh got me [D/E]running and I just can't brake
So [C/E]stay don't leave me mama
ā??Cause itā[D/E]??s getting so har[E]d ā?? oh, oh
CODA
| Em | % |
Donā??t go
| D/E | % |
No no, donā??t go
| Em | % | D/E | % |
(repeat and fade, vocals ad lib, guitar solo)

Important: The song above is NOT stored on the Chordie server. The original song is hosted at www.azchords.com. Chordie works as a search engine and provides on-the-fly formatting. Chordie does not index songs against artists'/composers' will. To remove this song please click here.

Text color:
Chord color:
Chord grids: 
Font size:    
Page size: 

A/E Am/E C C/E C6 D D/E E Em Em7 G/D G/E
Rate #1 of 3 versions

Jango Player

Login - add to songbook

SHARE PAGE  



You need to log in to post comments