Guitar Tabs, Chords and Lyrics
Major upgrade!! After one year development the new version of Chordie is now online! Please give feedback.


Turn It On Again  Genesis

[Verse] 
Main Riff (easy)
[E] [A] [E] [B] [B] [F#] [G] [A] [G] [D] [D] [A] [G] 
[1] [+] [2] [+] [3] [+] [4] [+] [1] [+] [2] [+] [3] [+] [1] [+] [2] [+] [3] [+] [4] [+] [1] [+] [2] [+]  
 
 e|----------------|------------|----------------|--------|
 B|0-2-0/4---4---2-|------------|3-5-3/7---7---5-|--3-----|
 G|1-2-1/4---4---3-|------------|4-6-4/7---7---6-|--4-----|
 D|----------------|------------|----------------|--------|
 A|----------------|------------|----------------|--------|
 E|----------------|------------|----------------|--------|

Main Riff (I think that is what Rutherford plays)
[E] [A] [E] [B] [B] [F#] [G] [A] [G] [D] [D] [A] [G] 
[1] [+] [2] [+] [3] [+] [4] [+] [1] [+] [2] [+] [3] [+] [1] [+] [2] [+] [3] [+] [4] [+] [1] [+] [2] [+]  
 
 e|----------------|------------|----------------|--------|
 B|9-109/12--12--11|------------|8-8-8/10--10--10|8-------|
 G|9-9-9/11--11--11|------------|7-9-7/11--11--9-|7-------|
 D|9-119/13--13--11|------------|9-9-9/12--12--11|9-------|
 A|----------------|------------|----------------|--------|
 E|----------------|------------|----------------|--------|

2nd guitar (palm mute)
[B5]  
[1] [+] [2] [+] [3] [+] [4] [+] [1] [+] [2] [+] [3] [+] [1] [+] [2] [+] [3] [+] [4] [+] [1] [+] [2] [+]  
 
 e|----------------|------------|----------------|--------|
 B|----------------|------------|----------------|--------|
 G|----------------|------------|----------------|--------|
 D|4-4-4-4-4-4-4-4-|4-4-4-4-4-4-|4-4-4-4-4-4-4-4-|4-4-4-4-|
 A|2-2-2-2-2-2-2-2-|2-2-2-2-2-2-|2-2-2-2-2-2-2-2-|2-2-2-2-|
 E|----------------|------------|----------------|--------|

for one guitar (capo 2nd fret)
[G/A] [A] [A] [G/A] [C/A] [C/A] 
[D/A] [D/A] [E/A] [F/A] [F/A] [G/A] [F/A] 
[1] [+] [2] [+] [3] [+] [4] [+] [1] [+] [2] [+] [3] [+] [1] [+] [2] [+] [3] [+] [4] [+] [1] [+] [2] [+]  
 
 e|----------------|------------|----------------|--------|
 B|7-8-7/10--10--8-|------------|6-6-6/8---8---8-|6-------|
 G|7-7-7/9---9---7-|------------|5-7-5/9---9---7-|5-------|
 D|7-9-7/11--11--9-|------------|7-7-7/10--10--9-|7-------|
 A|0-0-0-0-0-0-0-0-|0-0-0-0-0-0-|0-0-0-0-0-0-0-0-|0-0-0-0-|
 E|----------------|------------|----------------|--------|

[Bridge] 
[D/C] [C] [D/C] [C] [F/C] [G/C] [Bb/C] [F/C] [G/C] 
[1] [+] [2] [+] [3] [+] [4] [+] [1] [+] [2] [+] [3] [+] [4] [+] [1] [+] [2] [+] [3] [+] [4] [+] [1] [+] [2] [+] [3] [+] [4] [+]  
 
 e|----------------|----------------|--------------7-|----------------|
 B|7---7---7-5---7-|----7---7-5-----|6---6---6-8---7-|----6---6-8-----|
 G|7---7---7-5---7-|----7---7-5-----|5---5---5-7---8-|----5---5-7-----|
 D|7---7---7-5---7-|----7---7-5-----|7---7---7-9---9-|----7---7-9-----|
 A|----------------|----------------|----------------|----------------|
 E|----------------|----------------|----------------|----------------|

[Interlude] 
[D/E] [D/E] [D/E] [D/E]  
[Em7] [Em7] [Em7] [Em7] [Em7] [D/C] [C] [D/C] [C] 
[1] [+] [2] [+] [3] [+] [1] [+] [2] [+] [3] [+] [1] [+] [2] [+] [1] [+] [2] [+] [3] [+] [4] [+] [1] [+] [2] [+] [3] [+] [4] [+]  
 
 e|3---2-3-2---|3---2-3-2---|3-------|----------------|----------------|
 B|3---3-3-3---|3---3-3-3---|3-------|7---7---7-5---7-|----7---7-5-----|
 G|4---2-4-2---|3---4-3-4---|4-------|7---7---7-5---7-|----7---7-5-----|
 D|2-----------|2-----------|2-------|7---7---7-5---7-|----7---7-5-----|
 A|2-----------|2-----------|2-------|----------------|----------------|
 E|0-----------|0-----------|0-------|----------------|----------------|

Em7[D/E] Em[D/E]7 Em7[D/E] Em[D/E]7 Em7 A Em7 A [ Bm ]
[1] [+] [2] [+] [3] [+] [1] [+] [2] [+] [3] [+] [1] [+] [2] [+] [3] [+] [1] [+] [2] [+] [3] [+] [4] [+]  
 
 e|3---2-3-2---|3---2-3-2---|3---2-3-2---|3-----0---------|
 B|3---3-3-3---|3---3-3-3---|3---3-3-3---|3-----2---------|
 G|4---2-4-2---|3---4-3-4---|4---4-3-4---|4-----2---------|
 D|2-----------|2-----------|2-----------|2-----2---------|
 A|2-----------|2-----------|2-----------|2-----2---------|
 E|0-----------|0-----------|0-----------|0---------------|
 ---------------------------------------------------------------------------

[Intro] 
|[4/4] B5 |[3/4] % |[4/4] % |[2/4] % |
(guitar)
[4/4]| B5 [3/4]| % [4/4]| % [2/4]| % |
(+ keyboard bass)
|[4/4] C#/B | % | D/B | % |
|[4/4] E/B A/B E/B B B F#/B | F[3/4]#/B |
|[4/4] G/B A/B G/B D/B D/B A/B |[2/4] G/B |
[4/4]| E/B A/B E/B B B F#/B | [3/4]F#/B |
|[4/4] G/B A/B G/B D/B D/B A/B |[2/4] G/B |
[Verse] 
[E/B] [A/B]All [E/B]I [B]need [B]is a [F#/B]TV show
[G/B]That[A/B] [G/B]and [D/B]the ra[D/B]dio[A/B] [G/B]
[E/B]Down [A/B] [E/B]on [B]my luck [B]a - [F#/B]gain
[G/B]Down[A/B] [G/B]on [D/B]my luck [D/B]a - [A/B]gain[G/B]
[Bridge] 
[D/C]I can [D/C]show [C]you
[D/C]I can [D/C]show [C]you
[F/C]Some of the peo[G/C]ple in [Bb/C]my [F/C]life[G/C]
[D/C]I can [D/C]show [C]you
[D/C]I can [D/C]show [C]you
[F/C]Some of the peo[G/C]ple in [Bb/C]my [F/C]life[G/C]
[B] It's dri[A/B]ving me [B]mad
A/B F#m7 | B A/B B | B |
Just another way of passing the day
[Interlude] 
[Em7] [D/E] [Em7] [D/E] I
[Em7] [D/E] [Em7] [D/E] I
[D/C]Get so lone[C]ly when s[D/C]he's not there[C]
[Em7] [D/E] [Em7] [D/E] I
[Em7] [D/E] [Em7] [D/E] I
[Em7] [D/E] [Em7] [D/E] I
[Em7] [A] [Bm7] [F#m7] [(] [Fsus4)]  
 
 I-I - I-I- I-I-I

[Verse] 
[E/B] [A/B] [E/B]You're [B]jus[B]t ano[F#/B]ther face
[G/B] [A/B] [G/B]That [D/B]I know [D/B]from the [A/B]TV [G/B]show
[E/B] [A/B] [E/B]I [B]have known [B]you for so [F#/B]very long
[G/B] [A/B] [G/B]I [D/B]feel [D/B]you l[A/B]ike a [G/B]friend
[E/B] [A/B] [E/B]Can't you [B]do any[B]thing for [F#/B]me
[G/B] [A/B] [G/B]Can [D/B]I touch [D/B]you [A/B]for a [G/B]while
[E/B] [A/B] [E/B]Can I [B]meet [B]you a[F#/B]nother day
[G/B] [A/B] [G/B]And [D/B]we [D/B]will [A/B]fly a[G/B]way
[Bridge] 
[D/C]I can [D/C]show [C]you
[D/C]I can [D/C]show [C]you
[F/C]Some of the peo[G/C]ple in [Bb/C]my [F/C]life[G/C]
[D/C]I can [D/C]show [C]you
[D/C]I can [D/C]show [C]you
[F/C]Some of the peo[G/C]ple in [Bb/C]my [F/C]life[G/C]
[B] It's dri[A/B]ving me [B]mad
A/B F#m7 | B A/B B | B |
Just another way of passing the day
[Interlude] 
[Em7] [D/E] [Em7] [D/E] I
[Em7] [D/E] [Em7] [D/E] I
[D/C]Get so lone[C]ly when s[D/C]he's not there[C]
[Em7] [D/E] [Em7] [D/E] I
[Em7] [D/E] [Em7] [D/E] I
[Em7] [D/E] [Em7] [D/E] I
[Em7] [A] [Bm7] [F#m7] [(] [Fsus4)]  
 
 I-I - I-I- I-I-I

[Outro] 
[4/4]| E/B A/B E/B B B F#/B | [3/4]F#/B |
|[4/4] G/B A/B G/B D/B D/B A/B |[2/4] G/B |
Turn it on, turn it on, turn it on again
Turn it on, turn it on, turn it on again
(I can see another face)
(repeat and fade)

Important: The song above is NOT stored on the Chordie server. The original song is hosted at www.azchords.com. Chordie works as a search engine and provides on-the-fly formatting. Chordie does not index songs against artists'/composers' will. To remove this song please click here.

Text color:
Chord color:
Chord grids: 
Font size:    
Page size: 

A A/B B B5 Bb/C Bm7 C D D/B D/C D/E E E/B Em7 F# F#/B F#m7 F/C G G/B G/C
Rate #1 of 1 versions

Login - add to songbook

SHARE PAGE  




You need to log in to post comments