Guitar Tabs, Chords and Lyrics
Major upgrade!! After one year development the new version of Chordie is now online! Please give feedback.


The Light That Has Lighted the World  George Harrison

[Cborus] 
A9 Am9 [ G ]
[1] [+] [2] [+] [3] [+] [4] [+] [1] [+] [2] [+] [3] [+] [4] [+]  
 
 e|7---------------|7---------------|3
 B|5-----5---8-----|5-----5---7-----|0
 G|6---------------|5---------------|0
 D|5---------------|5---------------|0
 A|0---------------|0---------------|
 E|----------------|----------------|3

(Light that has ligh-ted the world)
[Interlude] 
[A9] [Am9] [D13] 
[1] [+] [2] [+] [3] [+] [4] [+] [1] [+] [2] [+] [3] [+] [4] [+] [1] [+] [2] [+] [3] [+] [4] [+] [1] [+] [2] [+] [3] [+] [4] [+]  
 
 e|7---------------|7---------------|5-----7---------|7---------------|
 B|5-----5---8-----|5-----5---8-----|5---------5-----|7-------7-------|
 G|6---------------|6---------------|5---------------|5-------5-------|
 D|5---------------|5---------------|5---------------|0-----------0---|
 A|0---------------|0---------------|0---------------|----------------|
 E|----------------|----------------|----------------|----------------|

[D13]  
[1] [+] [2] [+] [3] [+] [4] [+]  
 
 e|----------------|
 B|7-------7-------|
 G|5-------5-------|
 D|----0-------0---|
 A|----------------|
 E|----------------|
 ---------------------------------------------------------------------------

CHORDS
E-A-D-G-B-e
Bm7F# 2-x-4-4-3-2
G(D x-x-0-0-0-3
A7 x-0-2-0-2-0
Am7 x-0-2-0-1-0
D13 x-x-0-5-7-7
Cdim x-3-4-5-4-x [Coda]
 
 A9 x-0-5-6-0-0 x-0-5-6-5-7
 Am9 x-0-5-5-0-0 x-0-5-5-5-7
 ---------------------------------------------------------------------------

[Intro] 
| G | Bm/F# | Em | G |
[Verse] 
I've [G]heard how some [Bm/F#]people
Have [Em]said that I've [G/D]changed
That I'm [A7]not what I was
How it [Am7]really is a [D13]shame
[Verse] 
The [G]thoughts in their [Bm/F#]heads
Mani[Em]fest on their [G/D]brow
Like bad [A7]scars from ill feelings
They [Am7]themselves a[D13]rouse
[Pre-Cborus] 
So [Am]hateful of [Cdim]anyone
That is [G]happy or [E]free
They [Am]live all their [Cdim]lives
Without [G]looking to [E]see
[Cborus] 
A9 Am9 [ G ]
The light that has lighted the world
[Interlude] (= verse pattern)
| G | Bm/F# | Em | G |
(piano)
| A9 | A9 | Am9 | D13 | % |
(acoustic guitar - see [Interlude] tab above)
| G | Bm/F# | Em | G |
(piano)
| A9 | A9 | Am9 | D13 | % |
(acoustic guitar - see [Interlude] tab above)
[Solo] (= Pre-chorus + chorus]
| Am | Cdim | G | E |
(slide guitar)
| Am | Cdim | G | E |
(slide guitar)
| A9 | Am9 |
(slide guitar / acoustic guitar: see [Cborus] tab above)
| G Bm/F# | Em G/D |
[Verse] 
It's [G]funny how [Bm/F#]people
Just [Em]won't accept [G/D]change
As if [A7]nature itself
They'd pre[Am7]fer re-ar[D13]ranged
[Verse] 
So [G]hard to move [Bm/F#]on
When you're [Em]down in a [G/D]hole
Where there's [A7]so little chance
To ex[Am7]perience [D13]soul
[Pre-Cborus] 
I'm [Am]grateful to [Cdim]anyone
That is [G]happy or [E]free
For [Am]giving me[Cdim] hope
While I'm [G]looking to [E]see
[Cborus] 
A9 Am9 [ G ]
The light that has lighted the world
[Coda] 
| G | Bm/F# | Em | G |
(piano)
| A9 | Am9 | G
(slide guitar)

Important: The song above is NOT stored on the Chordie server. The original song is hosted at www.azchords.com. Chordie works as a search engine and provides on-the-fly formatting. Chordie does not index songs against artists'/composers' will. To remove this song please click here.

Text color:
Chord color:
Chord grids: 
Font size:    
Page size: 

A7 A9 Am Am7 Am9 Bm/F# Cdim D13 E Em G G/D
Rate #1 of 4 versions

Login - add to songbook

SHARE PAGE  




You need to log in to post comments