Guitar Tabs, Chords and Lyrics
Major upgrade!! After one year development the new version of Chordie is now online! Please give feedback.


What Is Life  George Harrison

FUZZ GUITAR
Capo 2nd fret
INTRO (3xA + 1xB)
PART A
[D] [A] [G] [A] [D] [A] [G] [A] 
[1] [+] [2] [+] [3] [+] [4] [+] [1] [+] [2] [+] [3] [+] [4] [+] [1] [+] [2] [+] [3] [+] [4] [+] [1] [+] [2] [+] [3] [+] [4] [+]  
 
 e|----------------|----------------|----------------|----------------|
 B|----------------|----------------|----------------|----------------|
 G|----------------|----------------|----------------|----------------|
 D|0---------------|----------------|0---------------|----------------|
 A|--4-2-0-----4-2-|0----------0----|--4-2-0-----4-2-|0---------0-2-0-|
 E|----------------|--3---3-3-------|----------------|--3--(3)3-------|

Part B
[C] [C/B] [A]  
[1] [+] [2] [+] [3] [+] [4] [+] [1] [+] [2] [+] [3] [+] [4] [+]  
 
 e|----------------|----------------|
 B|----------------|----------------|
 G|----------------|----------------|
 D|----------------|----------------|
 A|3-----2---------|0-0-0-----------|
 E|----------------|----------------|

VERSE
[D] [A] 
[1] [+] [2] [+] [3] [+] [4] [+] [1] [+] [2] [+] [3] [+] [4] [+] [1] [+] [2] [+] [3] [+] [4] [+] [1] [+] [2] [+] [3] [+] [4] [+]  
 
 e|----------------|----------------|----------------|----------------|
 B|----------------|----------------|----------------|----------------|
 G|----------------|----------------|----------------|----------------|
 D|0-----0---------|0-----0---------|----------------|----------------|
 A|--------0-----0-|--------2-0-----|0-----0---------|0-----0-----0-1-|
 E|----------------|------------0-2-|--------0-----0-|--------0-2-----|

[B] [Em] [F] [F/E] [F/D] [C] [C/B] [A] 
[1] [+] [2] [+] [3] [+] [4] [+] [1] [+] [2] [+] [3] [+] [4] [+] [1] [+] [2] [+] [3] [+] [4] [+] [1] [+] [2] [+] [3] [+] [4] [+]  
 
 e|----------------|----------------|----------------|----------------|
 B|----------------|----------------|----------------|----------------|
 G|----------------|----------------|----------------|----------------|
 D|------------0-1-|2-----2---0-1-2-|3-----2-----0---|----------------|
 A|2-----2---0-----|--------2-------|----------------|3-----2-----0---|
 E|--------2-------|----------------|----------------|----------------|

CHORUS
Chorus 1: 2xA+1xB
Chorus 2: 2xA+1xC ? 2xA+1xB
Chorus 3: 2xA+1xC (repeat and fade)
PART A
[D] [A] [G] [A] [D] [A] [G] [A] 
[1] [+] [2] [+] [3] [+] [4] [+] [1] [+] [2] [+] [3] [+] [4] [+] [1] [+] [2] [+] [3] [+] [4] [+] [1] [+] [2] [+] [3] [+] [4] [+]  
 
 e|----------------|----------------|----------------|----------------|
 B|----------------|----------------|----------------|----------------|
 G|----------------|----------------|----------------|----------------|
 D|0---------------|----------------|0---------------|----------------|
 A|--4-2-0-----4-2-|0----------0----|--4-2-0-----4-2-|0---------0-2-0-|
 E|----------------|--3---3-3-------|----------------|--3--(3)3-------|

Part B (chorus to verse/intro)
[C] [C/B] [A]  
[1] [+] [2] [+] [3] [+] [4] [+] [1] [+] [2] [+] [3] [+] [4] [+]  
 
 e|----------------|----------------|
 B|----------------|----------------|
 G|----------------|----------------|
 D|----------------|----------------|
 A|3-----2---------|0-0-0-----------|
 E|----------------|----------------|

Part C (chorus turnaround)
[C] [C] [C/B] [A]  
[1] [+] [2] [+] [3] [+] [4] [+] [1] [+] [2] [+] [3] [+] [4] [+]  
 
 e|----------------|----------------|
 B|----------------|----------------|
 G|----------------|----------------|
 D|----------------|----------------|
 A|3-----3---------|3---2---0-------|
 E|----------------|----------------|
 ---------------------------------------------------------------------------

CHORDS
E-A-D-G-B-e
F x-x-3-2-1-1
F/E x-x-2-0-1-1 (or rather "Fsus2/E")
F/D 1-1-0-0-x-x (or rather "Fsus2/D")
C/B 0-1-0-x-2-x
*TURNAROUND1 (verse-verse / verse-chorus)
[F] [F/E] [F/D] [C] [C/B] [A]  
[1] [+] [2] [+] [3] [+] [4] [+] [1] [+] [2] [+] [3] [+] [4] [+]  
 
 e|1-----1-----1---|----------------|
 B|1-----1-----1---|1-----1---------|
 G|2-----0-----0---|0-----0---------|
 D|3-----2-----0---|2-----x-----2---|
 A|----------------|3-----2-----0---|
 E|----------------|----------------|

**TURNAROUND2 (chorus-chorus)
[C] [C] [C/B] [A]  
[1] [+] [2] [+] [3] [+] [4] [+] [1] [+] [2] [+] [3] [+] [4] [+]  
 
 e|0-----0---------|0-------0-------|
 B|1-----1---------|1---1---2-------|
 G|0-----0---------|0---0---2-------|
 D|2-----2---------|2---x---2-------|
 A|3-----3---------|3---2---0-------|
 E|----------------|----------------|
 ---------------------------------------------------------------------------

INTRO
| D A | G A | D A | G A |
| D A | G A | D A | G A |
| D A | G A | D A | G A |
| C C/B | A |
VERSE
What I [D]feel, I can't [A]say
But my [B]love is there for you [Em]any time of [F]day [F/E] [*TURF/D]NAROUND 1]
[C] But [C/B]if it's [A]not [D]love that you [A]need
Then I'll [B]try my best to make [Em]everything suc[F]ceed [F/E] [*TURF/D]NAROU[C]ND 1[C/B]](Tel[A]l me ...)
CHORUS 1
[C/B] [ A] D A G A D A G
Tell me, what is my life without your lo----ve
[A] [D] [A] [G] [A] [D] [A] [G] [C] [C] [C/B] [A]  
 
 Tell me, who--ooh am I without yo---ou, by my si--de

VERSE
What I [D]know, I can [A]do
If I [B]give my love now to [Em]everyone like [F]you [F/E] [*TURF/D]NAROUND 1]
[C] But i[C/B]f it's n[A]ot [D]love that you [A]need
Then I'll [B]try my best to make [Em]everything suc[F]ceed [F/E] [*TURF/D]NAROU[C]ND [C/B]1](Te[A]ll me ...)
CHORUS 2
[C/B] [ A] D A G A D A G
Tell me, what is my life without your lo----ve
[A] [D] [A] [G] [A] [D] [A] [G] [C] [C] [C/B] [A]  
 
 Tell me, who--ooh am I without yo---ou, by my si--de [**TURNAROUND 2]

Tell me, [D]what [A]is my [G]life without [A]your [D]lo-[A]--[G]-ve
[A] [D] [A] [G] [A] [D] [A] [G] [C] [C/B] [A]  
 
 Tell me, who--ooh am I without yo---ou, by my si--de

INTERLUDE (riff)
| D A | G A | D A | G A |
| D A | G A | D A | G A |
| D A | G A | D A | G A |
| C C/B | A |
VERSE
What I [D]feel, I can't [A]say
But my [B]love is there for you [Em]any time of [F]day [F/E] [*TURF/D]NAROUND 1]
[C] But i[C/B]f it's n[A]ot [D]love that you [A]need
Then I'll [B]try my best to make [Em]everything suc[F]ceed [F/E] [*TURF/D]NAROU[C]ND 1[C/B]](Tel[A]l me ...)
CHORUS 3
[C/B] [ A] D A G A D A G
Tell me, what is my life without your lo----ve
[A] [D] [A] [G] [A] [D] [A] [G] [C] [C] [C/B] [A]  
 
 Tell me, who--ooh am I without yo---ou, by my si--de [**TURNAROUND 2]

Oh tell me, [D]what [A]is my [G]life without[A] your[D] lo[A]--[G]--ve
[A] [D] [A] [G] [A] [D] [A] [G] [C] [C] [C/B] [A]  
 
 Tell me, who--ooh am I without yo---ou, by my si--de [**TURNAROUND 2]

[D]What [A]is my [G]life without[A] your[D] lo[A]--[G]--ve
[A] [D] [A] [G] [A] [D] [A] [G] [C] [C] [C/B] [A]  
 
 Tell me, who--ooh am I without yo---ou, by my si--de [**TURNAROUND 2]

CODA (riff)
| D A | G A | D A | G A |
| D A | G A | D A | G A | D

Important: The song above is NOT stored on the Chordie server. The original song is hosted at www.azchords.com. Chordie works as a search engine and provides on-the-fly formatting. Chordie does not index songs against artists'/composers' will. To remove this song please click here.

Text color:
Chord color:
Chord grids: 
Font size:    
Page size: 

A B C C/B D Em F F/D F/E G
Rate #1 of 2 versions

Jango Player

Login - add to songbook

SHARE PAGE  




You need to log in to post comments